No Use for a Name

No Use for a Name - Crazy Train guitar tab

-------------------------------------------------------------------------------

CRAZY TRAIN - No Use For A Name

-------------------------------------------------------------------------------

By: Ozzy Osbourne

Intro

e|------------------------------------|-----------------------0-------|

B|------------------------------------|-----------------------0-------|

G|-----------------------------------:|-------------------7---9-------|

D|-----------------------------------:|-------------------7---9-------|

A|------4---5---4---2-------2---------|-----4---5---4-2---5---7-------|

E|--2-2---2---2---2---5-4-5----5-4-0--|-2-2---2---2-----------0-------|

Verse

e|-----------------------------------------------------------|

B|----------5----------5-----------3----------2--------------| Repeat

G|----------6----------4-----------2----------2--------2-----| 12 times

D|----------7----------6-----------4----------2--------2-----|

A|---0-0-0------0-0-0-----0-0-0-0-----0-0-0-0-0--------0-----|

E|------------------------------------------------3/4--------|

Pre - Chorus

e|----------------------|-------|-------------------|-----------------|

B|----------------------|-------|----------------3--|-----------------|

G|------------------7---|---7---|----------------2--|-----------------|

D|------------------7---|--7----|----------------0--|----0-0----------|

A|--4---4-----4-----5---|-------|--4---4---------0--|--------4-2------|

E|--2-0-2-----2--0------|-------|--2-0-2---0-2-0----|-----------------|

Chorus

e|--------------------------|-----------------------------------------|

B|--------------------------|-----------------------------------------|

G|---2---2---2--------------|---------------------x-------------------|

D|---2---2---2-----------2--|---2---2---2---------x-------------------|

A|---0---0---0-----------2--|---2---2---2---------x-------------------|

E|---------------4---2---0--|---0---0---0---4-------------------------|

e|-------2------------------------------------------------------------|

B|-----2----5-2-3-2---2-----------------------------------------------|

G|---4--------------5----5-4-2---2------------------------------------|

D|-----------------------------4---4-2---2----------------------------|

A|-------------------------------------4---4-3-2-3-2-3-2-3-2-0--------|

E|--------------------------------------------------------------------|

e|-----------0---------------------------------------------------------|

B|-----------0---------------------------------------------------------|

G|-2---------9-------------------------------------2-------------------|

D|-2---------9-------------------------------------2-------------------|

A|-0---------7-------------4-----4--1.9------------0-------------------|

E|----4--2---0----4--4--0--2--0--2------1.9--2--4----------------------|

e|-------------------------------------------------| Back to verse

B|-------------------------------------------------|

G|---------------------------------------7---------|

D|-----------2---------------------------7---------|

A|-----------2--------4-----4--2-2-------5---------|

E|----4--2---0--2--4--2--0--2------2--0------------|

Bridge and outro

e|---------------------------------------------0---------| repeat a

B|---------------------------------------------0---------| bunch of times

G|----------2-2----------------------7-7--9----9---------|

D|--4-4-----2-2-----2-2--------4-4---7-7--9----9---------|

A|--4-4-----0-0-----2-2--------4-4---5-5--7----7---------|

E|--2-2----------4--0-0---0----2-2-------------0---------|

-------------------------------------------------------------------------------

Get this song at:  amazon.com sheetmusicplus.com

Share your thoughts

0 Comments found