No Use for a Name

No Use for a Name - Countdown guitar tab

-*-*-*-*-*-*-*-*-*-*-*-*-*-*-*-*-*-*-*-*-*-*-*-*-*-*-*-*-*-*-*-*-*-*-*-

Song: countdown

Artist: no use for a name

Author: Roy Stevenson (are_you_done@yahoo.com)

Tuning: standard

-*-*-*-*-*-*-*-*-*-*-*-*-*-*-*-*-*-*-*-*-*-*-*-*-*-*-*-*-*-*-*-*-*-*-*-

e-|-----------------------------------------------------------------------

B-|-----------------------------------------------------------------------

G-|-15^-13-12-11-12-11h12p11----------12-14-15^-15^-15^-15^-15^-15^-12-15-

D-|--------------------------14-12-14-------------------------------------

A-|-----------------------------------------------------------------------

E-|-----------------------------------------------------------------------

e-|-----------------------------------------------------------|

B-|-----------------------------------------------------------|

G-|-----------------------------------------------------------|

D-|-14-12-14-------12-------------14-14-14-14-14-14-17-17-14~-|

A-|----------12h14----14-12-10-12-----------------------------|

E-|-----------------------------------------------------------|

e-|-----------------------------------------------------------------

B-|-----------------------------------------------------------------

G-|-----------------------------------------------------------------

D-|-9-9-9-9-4-4-4-4-5-5-5-5---------9-9-9-9-4-4-4-4-5-5-5-5-7-7-7-7-

A-|-7-7-7-7-2-2-2-2-3-3-3-3-5-5-4-4-7-7-7-7-2-2-2-2-3-3-3-3-5-5-5-5-

E-|-------------------------7-7-6-6---------------------------------

e-|-----------------------------------------------------------------

B-|-----------------------------------------------------------------

G-|-----------------------------------------------------------------

D-|-9-9-9-9-4-4-4-4-5-5-5-5---------9-9-9-9-4-4-4-4-5-5-5-5-7-7-7-7-

A-|-7-7-7-7-2-2-2-2-3-3-3-3-5-5-4-4-7-7-7-7-2-2-2-2-3-3-3-3-5-5-5-5-

E-|-------------------------7-7-6-6---------------------------------

e-|-----------------------------------------------------------------

B-|-----------------------------------------------------------------

G-|-----------------------------------------------------------------

D-|-9-9-9-9-4-4-4-4-5-5-5-5---------9-9-9-9-4-4-4-4-5-5-5-5-7-7-7-7-

A-|-7-7-7-7-2-2-2-2-3-3-3-3-5-5-4-4-7-7-7-7-2-2-2-2-3-3-3-3-5-5-5-5-

E-|-------------------------7-7-6-6---------------------------------

e-|-----------------------------------------------------------------|

B-|-----------------------------------------------------------------|

G-|-----------------------------------------------------------------|

D-|-9-9-9-9-4-4-4-4-5-5-5-5---------9-9-9-9-4-4-4-4-5-5-5-5-7-7-7-7-|

A-|-7-7-7-7-2-2-2-2-3-3-3-3-5-5-4-4-7-7-7-7-2-2-2-2-3-3-3-3-5-5-5-5-|

E-|-------------------------7-7-6-6---------------------------------|

e-|-----------------------------------------|-------------------------

B-|-----------------------------------------|-------------------------

G-|-----------------------------------------|-------------------------

D-|-9-9-9-9-9-9-9-9-11-11-11-11-11-11-11-11-|-------------------------

A-|-7-7-7-7-7-7-7-7--9--9--9--9--9--9--9--9-|-9-9-9-9-9-9-9-9-5-5-5-5-

E-|-----------------------------------------|-7-7-7-7-7-7-7-7-3-3-3-3-

e-|-------------------------------------------------------------------------

B-|-------------------------------------------------------------------------

G-|-------------------------------------------------------------------------

D-|-------------------------------------------------------------------------

A-|-7-7-7-7-9-9-9-9-9-9-9-9-5-5-5-5-7-7-7-7-9-9-9-9-9-9-9-9-5-5-5-5-7-7-7-7-

E-|-5-5-5-5-7-7-7-7-7-7-7-7-3-3-3-3-5-5-5-5-7-7-7-7-7-7-7-7-3-3-3-3-5-5-5-5-

e-|---------------------------------|-------------------------------|

B-|---------------------------------|-------------------------------|

G-|---------------------------------|-------------------------------|

D-|---------------------------------|-----------------------------6-|

A-|-9-9-9-9-9-9-9-9-5-5-5-5-7-7-7-7-|-4-4-4-4-5-5-7-7-4-4-4-4-5-5-4-|

E-|-7-7-7-7-7-7-7-7-3-3-3-3-5-5-5-5-|-2-2-2-2-3-3-5-5-2-2-2-2-3-3---|

e-|---------------------------------------------------------------------

B-|---------------------------------------------------------------------

G-|---------------------------------------------------------------------

D-|-9-9-9-9-4-4-4-4-5-5-5-5---------9-9-9-9-9-9-9-9-9-9-9-9-12-12-12-12-

A-|-7-7-7-7-2-2-2-2-3-3-3-3-5-5-5-5-7-7-7-7-7-7-7-7-7-7-7-7-10-10-10-10-

E-|-------------------------3-3-3-3-------------------------------------

e-|---------------------------------------------------------------------|

B-|---------------------------------------------------------------------|

G-|---------------------------------------------------------------------|

D-|-9-9-9-9-4-4-4-4-5-5-5-5---------9-9-9-9-9-9-9-9-9-9-9-9-12-12-12-12-|

A-|-7-7-7-7-2-2-2-2-3-3-3-3-5-5-5-5-7-7-7-7-7-7-7-7-7-7-7-7-10-10-10-10-|

E-|-------------------------3-3-3-3-------------------------------------|

e-|-----------------------------------------------------------------

B-|-----------------------------------------------------------------

G-|-----------------------------------------------------------------

D-|-9-9-9-9-4-4-4-4-5-5-5-5---------9-9-9-9-4-4-4-4-5-5-5-5-7-7-7-7-

A-|-7-7-7-7-2-2-2-2-3-3-3-3-5-5-4-4-7-7-7-7-2-2-2-2-3-3-3-3-5-5-5-5-

E-|-------------------------7-7-6-6---------------------------------

e-|-----------------------------------------------------------------

B-|-----------------------------------------------------------------

G-|-----------------------------------------------------------------

D-|-9-9-9-9-4-4-4-4-5-5-5-5---------9-9-9-9-4-4-4-4-5-5-5-5-7-7-7-7-

A-|-7-7-7-7-2-2-2-2-3-3-3-3-5-5-4-4-7-7-7-7-2-2-2-2-3-3-3-3-5-5-5-5-

E-|-------------------------7-7-6-6---------------------------------

e-|-----------------------------------------------------------------

B-|-----------------------------------------------------------------

G-|-----------------------------------------------------------------

D-|-9-9-9-9-4-4-4-4-5-5-5-5---------9-9-9-9-4-4-4-4-5-5-5-5-7-7-7-7-

A-|-7-7-7-7-2-2-2-2-3-3-3-3-5-5-4-4-7-7-7-7-2-2-2-2-3-3-3-3-5-5-5-5-

E-|-------------------------7-7-6-6---------------------------------

e-|-----------------------------------------------------------------|

B-|-----------------------------------------------------------------|

G-|-----------------------------------------------------------------|

D-|-9-9-9-9-4-4-4-4-5-5-5-5---------9-9-9-9-4-4-4-4-5-5-5-5-7-7-7-7-|

A-|-7-7-7-7-2-2-2-2-3-3-3-3-5-5-4-4-7-7-7-7-2-2-2-2-3-3-3-3-5-5-5-5-|

E-|-------------------------7-7-6-6---------------------------------|

e-|-------------------------------------------------|-----------------------

B-|-------------------------------------------------|-----------------------

G-|-------------------------------------------------|-----------------------

D-|-9-9-9-9-9-9-9-9-11-11-11-11-11-11-11-11-8-8-8-8-|-----------------------

A-|-7-7-7-7-7-7-7-7--9--9--9--9--9--9--9--9-6-6-6-6-|-9-9-9-9-9-9-9-5-5-5-5-

E-|-------------------------------------------------|-7-7-7-7-7-7-7-3-3-3-3-

e-|-------------------------------------------------------------------------

B-|-------------------------------------------------------------------------

G-|-------------------------------------------------------------------------

D-|-------------------------------------------------------------------------

A-|-7-7-7-7-9-9-9-9-9-9-9-9-5-5-5-5-7-7-7-7-9-9-9-9-9-9-9-9-5-5-5-5-7-7-7-7-

E-|-5-5-5-5-7-7-7-7-7-7-7-7-3-3-3-3-5-5-5-5-7-7-7-7-7-7-7-7-3-3-3-3-5-5-5-5-

e-|---------------------------------|-------------------------------|

B-|---------------------------------|-------------------------------|

G-|---------------------------------|-------------------------------|

D-|---------------------------------|-----------------------------6-|

A-|-9-9-9-9-9-9-9-9-5-5-5-5-7-7-7-7-|-4-4-4-4-5-5-7-7-4-4-4-4-5-5-4-|

E-|-7-7-7-7-7-7-7-7-3-3-3-3-5-5-5-5-|-2-2-2-2-3-3-5-5-2-2-2-2-3-3---|

e-|---------------------------------------------------------------------

B-|---------------------------------------------------------------------

G-|---------------------------------------------------------------------

D-|-9-9-9-9-4-4-4-4-5-5-5-5---------9-9-9-9-9-9-9-9-9-9-9-9-12-12-12-12-

A-|-7-7-7-7-2-2-2-2-3-3-3-3-5-5-5-5-7-7-7-7-7-7-7-7-7-7-7-7-10-10-10-10-

E-|-------------------------3-3-3-3-------------------------------------

e-|---------------------------------------------------------------------|

B-|---------------------------------------------------------------------|

G-|---------------------------------------------------------------------|

D-|-9-9-9-9-4-4-4-4-5-5-5-5---------9-9-9-9-9-9-9-9-9-9-9-9-12-12-12-12-|

A-|-7-7-7-7-2-2-2-2-3-3-3-3-5-5-5-5-7-7-7-7-7-7-7-7-7-7-7-7-10-10-10-10-|

E-|-------------------------3-3-3-3-------------------------------------|

e-|-------------------------------------------------|

B-|-------------------------------------------------|

G-|-------------------------------------------------|

D-|-14-14-14-14-14-14-14-14-14-14-14-14-14-14-14-14-|

A-|-12-12-12-12-12-12-12-12-12-12-12-12-12-12-12-12-|

E-|-------------------------------------------------|

e-|-------------------------------------------------------------------|

B-|-------------------------------------------------------------------|

G-|-------------------------------------------------------------------|

D-|-------------------------------------------------------------4-6-8-|

A-|-4-4-4-5-2-5-2-5-4-4-4-5-2-5-2-5-4-4-4-5-2-5-2-5-4-4-4-5-2-5-2-4-6-|

E-|-2-2-2-3-0-3-0-3-2-2-2-3-0-3-0-3-2-2-2-3-0-3-0-3-2-2-2-3-0-3-------|

e-|---------------------------------------------------------------------

B-|---------------------------------------------------------------------

G-|---------------------------------------------------------------------

D-|-9-9-9-9-4-4-4-4-5-5-5-5---------9-9-9-9-9-9-9-9-9-9-9-9-12-12-12-12-

A-|-7-7-7-7-2-2-2-2-3-3-3-3-5-5-5-5-7-7-7-7-7-7-7-7-7-7-7-7-10-10-10-10-

E-|-------------------------3-3-3-3-------------------------------------

e-|---------------------------------------------------------------------

B-|---------------------------------------------------------------------

G-|---------------------------------------------------------------------

D-|-9-9-9-9-4-4-4-4-5-5-5-5---------9-9-9-9-9-9-9-9-9-9-9-9-12-12-12-12-

A-|-7-7-7-7-2-2-2-2-3-3-3-3-5-5-5-5-7-7-7-7-7-7-7-7-7-7-7-7-10-10-10-10-

E-|-------------------------3-3-3-3-------------------------------------

e-|---------------------------------------------------------------------

B-|---------------------------------------------------------------------

G-|---------------------------------------------------------------------

D-|-9-9-9-9-4-4-4-4-5-5-5-5---------9-9-9-9-9-9-9-9-9-9-9-9-12-12-12-12-

A-|-7-7-7-7-2-2-2-2-3-3-3-3-5-5-5-5-7-7-7-7-7-7-7-7-7-7-7-7-10-10-10-10-

E-|-------------------------3-3-3-3-------------------------------------

e-|-----------------------------------------------------------------

B-|-----------------------------------------------------------------

G-|-----------------------------------------------------------------

D-|-9-9-9-9-4-4-4-4-5-5-5-5---------9-9-9-9-11-11-11-11-12-12-12-12-

A-|-7-7-7-7-2-2-2-2-3-3-3-3-5-5-5-5-7-7-7-7--9--9--9--9-10-10-10-10-

E-|-------------------------3-3-3-3---------------------------------

e-|-----------------------------------------------------------------|

B-|-----------------------------------------------------------------|

G-|-----------------------------------------------------------------|

D-|-14-14-14-14-14-14-14-14-14-14-14-14-14-14-14-14-14-14-14-14-----|

A-|-12-12-12-12-12-12-12-12-12-12-12-12-12-12-12-12-12-12-12-12--2--|

E-|--------------------------------------------------------------0--|

=====================================================================

Get this song at:  amazon.com sheetmusicplus.com

Share your thoughts

0 Comments found