No Use for a Name

No Use for a Name - Countdown bass tab

----------------------------------------------------

COUNTDOWN / No Use For A Name

----------------------------------------------------

By: Carlos Pino

G-|-------------------------------------------------------------------

D-|-------------------------------------------------------------------

A-|-7-7-7-7-2-2-2-2-3-3-3-3-----------7-7-7-7-2-2-2-2-3-3-3-3-5-5-5-5-

E-|--------------------------7-7-6-6---------------------------------

G-|----------------------------------------------------------------------

D-|----------------------------------------------------------------------

A-|-7-7-7-7-2-2-2-2-3-3-3-3--------------7-7-7-7-2-2-2-2-3-3-3-3-5-5-5-5-

E-|---------------------------7-7-6-6---------------------------------

G-|----------------------------------------------------------------------------

D-|-----------------------------------------------------------------------------

A-|-7-7-7-7-2-2-2-2-3-3-3-3------------7-7-7-7-2-2-2-2-3-3-3-3-5-5-5-5-

E-|--------------------------7-7-6-6---------------------------------

G-|-------------------------------------------------------------------|

D-|-------------------------------------------------------------------|

A-|-7-7-7-7-2-2-2-2-3-3-3-3-----------7-7-7-7-2-2-2-2-3-3-3-3-5-5-5-5-|

E-|---------------------------7-7-6-6---------------------------------|

G-|-----------------------------------------------------------------

D-|-----------------------------------------------------------------

A-|-7-7-7-7-7-7-7-7--9--9--9--9--9--9--9--9-------------------------

E-|-------------------------------------------7-7-7-7-7-7-7-3-3-3-3-

G-|-------------------------------------------------------------------------

D-|-------------------------------------------------------------------------

A-|-------------------------------------------------------------------------

E-|-5-5-5-5-7-7-7-7-7-7-7-7-3-3-3-3-5-5-5-5-7-7-7-7-7-7-7-7-3-3-3-3-5-5-5-5-

G-|-----------------------------------------------------------------|

D-|-----------------------------------------------------------------|

A-|---------------------------------|-----------------------------4-|

E-|-7-7-7-7-7-7-7-7-3-3-3-3-5-5-5-5-|-2-2-2-2-3-3-5-5-2-2-2-2-3-3---|

G-|---------------------------------------------------------------------

D-|---------------------------------------------------------------------

A-|-7-7-7-7-2-2-2-2-3-3-3-3---------7-7-7-7-7-7-7-7-7-7-7-7-10-10-10-10-

E-|-------------------------3-3-3-3-------------------------------------

G-|---------------------------------------------------------------------|

D-|---------------------------------------------------------------------

A-|-7-7-7-7-2-2-2-2-3-3-3-3---------7-7-7-7-7-7-7-7-7-7-7-7-10-10-10-10-|

E-|-------------------------3-3-3-3-------------------------------------|

G-|-----------------------------------------------------------------

D-|-----------------------------------------------------------------

A-|-7-7-7-7-2-2-2-2-3-3-3-3---------7-7-7-7-2-2-2-2-3-3-3-3-5-5-5-5-

E-|-------------------------7-7-6-6---------------------------------

G-|---------------------------------------------------------------------

D-|---------------------------------------------------------------------

A-|-7-7-7-7-2-2-2-2-3-3-3-3-----------7-7-7-7-2-2-2-2-3-3-3-3-5-5-5-5-

E-|---------------------------7-7-6-6---------------------------------

G-|-----------------------------------------------------------------

D-|-------------------------------------------------------------------

A-|-7-7-7-7-2-2-2-2-3-3-3-3-----------7-7-7-7-2-2-2-2-3-3-3-3-5-5-5-5-

E-|--------------------------7-7-6-6---------------------------------

G-|-----------------------------------------------------------------|

D-|-------------------------------------------------------------------

A-|-7-7-7-7-2-2-2-2-3-3-3-3----------7-7-7-7-2-2-2-2-3-3-3-3-5-5-5-5-|

E-|--------------------------7-7-6-6---------------------------------|

G-|------------------------------------------------------------------------

D-|-------------------------------------------------------------------------

A-|-7-7-7-7-7-7-7-7--9--9--9--9--9--9--9--9-6-6-6-6-|-----------------------

E-|-------------------------------------------------|-7-7-7-7-7-7-7-3-3-3-3-

G-|-------------------------------------------------------------------------

D-|-------------------------------------------------------------------------

A-|-------------------------------------------------------------------------

E-|-5-5-5-5-7-7-7-7-7-7-7-7-3-3-3-3-5-5-5-5-7-7-7-7-7-7-7-7-3-3-3-3-5-5-5-5-

G-|---------------------------------|-------------------------------|

D-|---------------------------------|-------------------------------|

A-|---------------------------------------------------------------4-|

E-|-7-7-7-7-7-7-7-7-3-3-3-3-5-5-5-5-|-2-2-2-2-3-3-5-5-2-2-2-2-3-3---|

G-|---------------------------------------------------------------------

D-|---------------------------------------------------------------------

A-|-7-7-7-7-2-2-2-2-3-3-3-3---------7-7-7-7-7-7-7-7-7-7-7-7-10-10-10-10-

E-|-------------------------3-3-3-3-------------------------------------

G-|---------------------------------------------------------------------|

D-|---------------------------------------------------------------------|

A-|-7-7-7-7-2-2-2-2-3-3-3-3---------7-7-7-7-7-7-7-7-7-7-7-7-10-10-10-10-|

E-|-------------------------3-3-3-3-------------------------------------|

G-|-------------------------------------------------|

D-|-------------------------------------------------|

A-|-12-12-12-12-12-12-12-12-12-12-12-12-12-12-12-12-|

E-|-------------------------------------------------|

G-|-------------------------------------------------------------------|

D-|-------------------------------------------------------------------|

A-|-------------------------------------------------------------2-4-6-|

E-|-2-2-2-3-0-3-0-3-2-2-2-3-0-3-0-3-2-2-2-3-0-3-0-3-2-2-2-3-0-3-------|

G-|---------------------------------------------------------------------

D-|---------------------------------------------------------------------

A-|-7-7-7-7-2-2-2-2-3-3-3-3---------7-7-7-7-7-7-7-7-7-7-7-7-10-10-10-10-

E-|-------------------------3-3-3-3-------------------------------------

G-|---------------------------------------------------------------------

D-|---------------------------------------------------------------------

A-|-7-7-7-7-2-2-2-2-3-3-3-3---------7-7-7-7-7-7-7-7-7-7-7-7-10-10-10-10-

E-|-------------------------3-3-3-3-------------------------------------

G-|---------------------------------------------------------------------

D-|----------------------------------------------------------------------

A-|-7-7-7-7-2-2-2-2-3-3-3-3-----------7-7-7-7-7-7-7-7-7-7-7-7-10-10-10-10-

E-|--------------------------3-3-3-3-------------------------------------

G-|-----------------------------------------------------------------

D-|-----------------------------------------------------------------

A-|-7-7-7-7-2-2-2-2-3-3-3-3-------------7-7-7-7--9--9--9--9-10-10-10-10-

E-|---------------------------3-3-3-3---------------------------------

G-|-----------------------------------------------------------------|

D-|-----------------------------------------------------------------|

A-|-12-12-12-12-12-12-12-12-12-12-12-12-12-12-12-12-12-12-12-12-----|

E-|--------------------------------------------------------------0--|

Get this song at:  amazon.com sheetmusicplus.com

Share your thoughts

0 Comments found