No Use for a Name

No Use for a Name - Coming Too Close bass tab

Song: Coming Too Close

Band: No Use For a Name

Album: More Betterness (1999)

Tabbed by: Marcell Kalnai from a hungarian band (Eszkijarat) - kmarcell@supergamez.hu

Verse1 (2x)

G|--9999-999-777-5555-555-444-10'10'10'10--10'10'10-999-7777-777-555|

D|------------------------------------------------------------------|

A|------------------------------------------------------------------|

E|------------------------------------------------------------------|

Verse2 (1x)

G|--4444-444-444-5555-9<--------------------------------------------|

D|------------------------------------------------------------------|

A|------------------------------------------------------------------|

E|------------------------------------------------------------------|

Chorus (1x)

G|----------------------------------------------|

D|---------------2<-----------------------------|

A|---------3<-----------3<----------------------|

E|-3<--1<-----3<----1<------3<--6<--5<--1<--3<--|

Verse1 (2x)

G|--9999-999-777-5555-555-444-10'10'10'10--10'10'10-999-7777-777-555|

D|------------------------------------------------------------------|

A|------------------------------------------------------------------|

E|------------------------------------------------------------------|

Verse2 (1x)

G|--4444-444-444-5555-9<--------------------------------------------|

D|------------------------------------------------------------------|

A|------------------------------------------------------------------|

E|------------------------------------------------------------------|

Chorus (1x)

G|----------------------------------------------|

D|---------------2<-----------------------------|

A|---------3<-----------3<----------------------|

E|-3<--1<-----3<----1<------3<--6<--5<--1<--3<--|

Bridge

G|-5-7-9-----------7--------------------|

D|-3-5-6---7--5--3------5--3--2---------|

A|-------------------3-----------5-3----|

E|-----------------------------------3--|

Chorus' (1x)

G|----------------------------------------------|

D|---------------2<-----------------------------|

A|---------3<-----------3<----------------------|

E|-----1<-----3<----1<------3<--6<--5<--1<--3<--|

Verse1 (1x)

G|--9999-999-777-5555-555-444-10'10'10'10--10'10'10-999-7777-777-555|

D|------------------------------------------------------------------|

A|------------------------------------------------------------------|

E|------------------------------------------------------------------|

Verse3 (1x)

G|-9999-999-12'12'12--14'14'14'14--14'14'14'--12'12'12--10'10'10'10-|

D|------------------------------------------------------------------|

A|------------------------------------------------------------------|

E|------------------------------------------------------------------|

G|-10'10'10--999--12'12'12'12'--12'12'12--10'10'10--9999-|

D|-------------------------------------------------------|

A|-------------------------------------------------------|

E|-------------------------------------------------------|

Get this song at:  amazon.com sheetmusicplus.com

Share your thoughts

0 Comments found