No Use for a Name

No Use for a Name - Christmas Day bass tab

Band:No Use For A Name

Song:Christmas Day

Album:?

Tabbed by Kyle Gayne

Intro

G:----------------------------------|

D:----------------------------------|

A:-------------------------3-333333-|x2

E:-3-3333333-3333330-000000---------|

Verse

G:----------------------------------|

D:----------------------------------|

A:-------------------------33333333-|x2

E:-333333333333333300000000---------|

Pre Chorus

G:----------------------------------|

D:----------------------------------|

A:-55555555555555553333333333333333-|x1

E:----------------------------------|

G:----------------------------------|

D:----------------------------------|

A:-55555555555555553333333355555555-|x1

E:----------------------------------|

Chorus

G:------------------------------------------------------------------|

D:------------------------------------------------------------------|

A:-----------------5-555555555555553-333333333333333333333333333333-|x2

E:-3-33333333333333-------------------------------------------------|

Repeat:

Intro

Verse

Pre Chorus

Chorus

Bridge

G:------------------------------------------------------------------|

D:------------------------------------------------------------------|

A:-------------------------------------------------3~~~~~~~---------|x2

E:-3~~~~~~~--------2~~~~~~~--------0~~~~~~~-------------------------|

G:------------------------------------------------------------------|

D:------------------------------------------------------------------|

A:-2-2-2-2-2-2-2-2-3-3-3-3-3-3-3-3-----------------5-5-5-5-5-5-5-5--|x1

E:---------------------------------3-3-3-3-3-3-3-3------------------|

G:------------------------------------------------------------------|

D:------------------------------------------------------------------|

A:-22222222222222223333333333333333----------------555555555--------|x1

E:---------------------------------3333333333333333-----------------|

Repeat:

Chorus

Outro

G:----------------------------------|

D:----------------------------------|

A:-------------------------3-333333-|x2

E:-3-3333333-3333330-000000---------|

G:-------------------------5-555555-|

D:-5-5555555-5555432-222222---------|

A:----------------------------------|x1

E:----------------------------------|

G:-------------------------5-5-5-5-5-5-5-5--------------------------|

D:-5-5555555-5555432-222222-----------------------------------------|

A:------------------------------------------------------------------|x1

E:-----------------------------------------3~~~~~~~~~~~~~~~---------|

Taken from The BassMasta -- http://www.tabs-database.com

Get this song at:  amazon.com sheetmusicplus.com

Share your thoughts

0 Comments found