No Use for a Name

No Use for a Name - Chasing Rainbows guitar tab

song: Chasing Rainbows (written by Tony Sly)

band: No Use For A Name

Album: More Betterness

Tuning: Standard

tabbed by: 'Nufan' - Peter Tom Takaro

feedback on nouseforaname@freemail.hu

keys,

/ = slide up

= slide down

^ = pull string down

~ = let ring

r = release

h = hammer on

okay,this is the lead guitar part,you can easily figure the rhythm guitar

part out,and the rhythm too...

Intro:

e|----------------------------------------------------------------------|

B|----------------------------------------------------------------------|

G|-5---12-------10----5-----------10-9-7--------------------------------|

D|-x----x---7---x-----5---5---3---10-9-7--------------------------------|

A|-3---10---x---8-----3---5---3----8-7-5--------------------------------|

E|----------5-------------3---1-----------------------------------------|

Verse

C G A F C G F

e|----------------------------------------------------------------------|

B|----------------------------------------------------------------------|

G|-5x---------------------5x-------------14--15-------------------------|

D|-5x---5x---7x---3x------5x---5x---3x----x---x-------------------------|

A|-3x---5x---7x---3x------5x---5x---3x---12--13-------------------------|

E|------3x---5x---1x-----------3x---1x----------------------------------|

C G A F C G F G F(8th fret)

e|----------------------------------------------------------------------|

B|----------------------------------------------------------------------|

G|-5X---------------------5X-----------------10-------------------------|

D|-5X---5X---7X---3X------5X---5X---3X--5~---10-------------------------|

A|-3X---5X---7X---3X------5X---5X---3X--5~----8-------------------------|

E|------3X---5X---1X-----------3X---1X--3~------------------------------|

Chorus: "All I wanna do is make sure..."

A F G C A G F G

e|----------------------------------------------------------------------|

B|-----------------------------------------------13---12----------------|

G|----------------5--5----------------------------x----x----------------|

D|-7----3----5----5--5------7----5----3----5-----10----9----------------|

A|-7----3----5----3--2------7----5----3----5----------------------------|

E|-5----1----3--------------5----3----1----3----------------------------|

End of chorus Bridge 1: "Just dont go on thinking...."

e|----------------------------------------------------------------------|

B|--13------------------------------------------------------------------|

G|---x--------7----5----------------------------------------------------|

D|--10--------7----5----5----3------------------------------------------|

A|------------5----3----5----3------------------------------------------|

E|----------------------3----1------------------------------------------|

gtr1 dives into verse while gtr2 plays solo:

e|----------------------------------------------------------------------|

B|---3/5^---3-5--6^---6r5--1/13^--108--86--6--5~----------------------|

***Verse***

***Chorus***

End of Chorus Bridge 2: "Someone who will not try..."

e|----------------------------------------------------------------------|

B|----------------------------------------------------------------------|

G|---7---5-------------5---5-------------------------10-----------------|

D|---7---5---5---3-----5---5---7---5-----7---5---3---10-----------------|

A|---5---3---5---3-----3---2---7---5-----7---5---3----8-----------------|

E|-----------3---1-------------5---3-----5---3---1----------------------|

Outro solo:

e|------------------------------------------------------------------------------|

B|3/5^~--8--53^~--0h1^~--1---------3/5^~--8--53^~--0h1^~--6-5--108--65--3--1|

G|---------------------------2~(r0)---------------------------------------------|

Enjoy!

Get this song at:  amazon.com sheetmusicplus.com

Share your thoughts

0 Comments found