No Use for a Name

No Use for a Name - Chasing Rainbows bass tab

Tabbed By - Alan

Band - No Use For A Name

Song - Chasing Rainbows

Intro:

G|--9--------------------------------------------------------------|

D|---10101010101010--12----------------10----------------10---9~~--|

A|---------------------10101010101010----12121212121212----888-----|

E|-----------------------------------------------------------------|

G|--9--------------------------------------------------------------|

D|---10101010101010--12----------------10--------------------------|

A|---------------------10101010101010----12121212121212--8-7-5-55~~|

E|-----------------------------------------------------------------|

Verse:

G|--------------------------------------------------------------------------|

D|--------------------------------------------------------------------------|

A|--33333333----------------------------33333333----------------------------|

E|-----------33333333-55555555-11111111----------55555555-00000000-11111111-|

G|--------------------------------------------------------------------------|

D|--------------------------------------------------------------------------|

A|--33333333----------------------------33333333----------------------------|

E|-----------33333333-55555555-11111111----------55555555-11111111-33333333-|

Chorus: x2 (seond time, dont play last 2 bars)

G|--------------------------------------------------------------------------|

D|--------------------------------------------------------------------------|

A|--00000000-------------------33332222-00000000----------------------------|

E|-----------11111111-33333333-------------------33333333-11111111-33333333-|

Post Chorus 1:

G|----------------------|

D|----------------------|

A|--5555-3333-1111------|

E|-----------------1111-|

First Half Of Intro: (for first guitar solo)

Verse:

Chorus: x2 (seond time, dont play last 2 bars)

Post Chorus 2:

G|--------------------------------------------------------------|

D|--------------------------------------------------------------|

A|--5555-3333-1111------3333-2222-0000------1111-0000-----------|

E|-----------------1111----------------3333-----------3333-1111-|

Intro: (for second guitar solo)

Outro:

G|--------|

D|--------|

A|--5553~~|

E|--------|

thats all folks!

Taken from The BassMasta -- http://www.tabs-database.com

Get this song at:  amazon.com sheetmusicplus.com

Share your thoughts

0 Comments found