No Use for a Name

No Use for a Name - Born Addicted guitar tab

-------------------------------------------------------------------------------

BORN ADDICTED - No Use For A Name

-------------------------------------------------------------------------------

By: retreat666

retreatpunk.cjb.net

~ means hold note

* means play note a lote of times

Figure out the palm mute yourself, the song is not hard.

Intro:

e|-------------------------------------------------------------------------|

B|-------------------------------------------------------------------------|

G|-10-9-10-11-10-11-12-11-12-13-12-13-14-14-14-14-14-14--------------------|

D|-10-9-10-11-10-11-12-11-12-13-12-13-14-14-14-14-14-14--------------------|

A|--8-7--8--9--8--9-10--9-10-11-10-11-12-12-12-12-12-12--------------------|

E|-------------------------------------------------------------------------|

Riff 1: (play 3 times)

e|-------------------------------------------------------------------------|

B|-------------------------------------------------------------------------|

G|-10--7-9--5-7-4----------------------------------------------------------|

D|-10--7-9--5-7-4-7*-------------------------------------------------------|

A|--8--5-7--3-5-2-7--------------------------------------------------------|

E|----------------5--------------------------------------------------------|

Riff 1 part 2 (play once)

e|-------------------------------------------------------------------------|

B|-------------------------------------------------------------------------|

G|-10--7-9--5-7-4--7*--5-5-5-4-4-4-----------------------------------------|

D|-10--7-9--5-7-4--7---5-5-5-4-4-4-----------------------------------------|

A|--8--5-7--3-5-2--5---3-3-3-2-2-2-----------------------------------------|

E|-------------------------------------------------------------------------|

Riff 2: (3 times)

e|-------------------------------------------------------------------------|

B|-------------------------------------------------------------------------|

G|--------5--8-7-------5-10------------------------------------------------|

D|--7-5-7-5--8-7-7-5-7-5-10------------------------------------------------|

A|--7-5-7-3--6-5-7-5-7-3--8------------------------------------------------|

E|--5-3-5--------5-3-5-----------------------------------------------------|

Riff 2 part 2 (play once)

e|-------------------------------------------------------------------------|

B|-------------------------------------------------------------------------|

G|--------5--8-7--10-------------------------------------------------------|

D|--7-5-7-5--8-7--10-------------------------------------------------------|

A|--7-5-7-3--6-5---8-------------------------------------------------------|

E|--5-3-5------------------------------------------------------------------|

After this there's a kind of solo, very easy: (riff 2 continues at the same time

with the other guitar)

e|-------------------------------------------------------------------------|

B|-------------------------------------------------------------------------|

G|-------------------------------------------------------------------------|

D|------5*--4*-------------------------------------------------------------|

A|--7*---------------------------------------------------------------------|

E|-------------------------------------------------------------------------|

Pre-Verse (a woman sits...):

e|-------------------|-----------------------------------------------------|

B|-------------------|-----------------------------------------------------|

G|-------------------|---------------9*------------------------------------|

D|-7*--5*--3*--2*----|--7*--5*--3*---9-------------------------------------|

A|-7---5---3---2-----|--7---5---3----7-------------------------------------|

E|-5---3---1---0-----|--5---3---1------------------------------------------|

Verse: (twice)

e|-------------------------------------------------------------------------|

B|-------------------------------------------------------------------------|

G|-----10*---7*---3*---5--5--5---------------------------------------------|

D|-7*--10----7----3----5--5--5---------------------------------------------|

A|-7----8----5----1----3--3--3---------------------------------------------|

E|-5-----------------------------------------------------------------------|

Chorus: (no responsability, the baby is born addicted...)

(play 4 times)

e|-------------------------------------------------------------------------|

B|-------------------------------------------------------------------------|

G|-7*--10*---5*------------------------------------------------------------|

D|-7---10----5----5*-------------------------------------------------------|

A|-5----8----3----5--------------------------------------------------------|

E|----------------3--------------------------------------------------------|

Bridge: (1st guitar)

e|-------------------------------------------------------------------------|

B|-------------------------------------------------------------------------|

G|----5*-------------------------------------------------------------------|

D|-7*-5---5*--2*-----------------------------------------------------------|

A|-7--3---5---2------------------------------------------------------------|

E|-5------3---0------------------------------------------------------------|

2nd guitar during bridge:

e|-------------------------------------------------------------------------|

B|-------------------------------------------------------------------------|

G|------5*--7-5------------------------------------------------------------|

D|--7*-----------5*---7*--6*-----------------------------------------------|

A|-------------------------------------------------------------------------|

E|-------------------------------------------------------------------------|

Chords right before the solo:

e|-------------------------------------------------------------------------|

B|-------------------------------------------------------------------------|

G|-------5-4---------------------------------------------------------------|

D|--2-2--5-4--7-7-7--------------------------------------------------------|

A|--2-2--3-2--7-7-7--------------------------------------------------------|

E|--0-0-------5-5-5--------------------------------------------------------|

Solo:

e|------------------------|---------------------------------------------------------------------------|

B|------------------10-12-|-13-12-10-12-10----10-------------------------------------------10-bend----|

G|--7--9-9-10-10-12-------|----------------12----12-10-9-10-9-7-9-7-9-5-7-5-7-5-4-5-4-5-4-------------|

D|------------------------|---------------------------------------------------------------------------|

A|------------------------|---------------------------------------------------------------------------|

E|------------------------|---------------------------------------------------------------------------|

I know the solo isn't 100 % accurate, but play around wih the notes of the

second part and you'll get it

before the end:

e|-------------------------------------------------------------------------|

B|-------------------------------------------------------------------------|

G|-----5*----10-10--9-9----------------------------------------------------|

D|--7*-5--5*-10-10--9-9----------------------------------------------------|

A|--7--3--5---8--8--7-7----------------------------------------------------|

E|--5-----3----------------------------------------------------------------|

end with riff 2 a couple of times

more songs from the album "Don't miss the train coming". Send your requests:

retreat@videotron.ca

-------------------------------------------------------------------------------

Get this song at:  amazon.com sheetmusicplus.com

Share your thoughts

0 Comments found