No Use for a Name

No Use for a Name - Biomag guitar tab

-*-*-*-*-*-*-*-*-*-*-*-*-*-*-*-*-*-*-*-*-*-*-*-*-*-*-*-*-*-*-*-*-*-*-*-

Song: biomag

Artist: no use for a name

Author: Roy Stevenson (are_you_done@yahoo.com)

Tuning: standard

-*-*-*-*-*-*-*-*-*-*-*-*-*-*-*-*-*-*-*-*-*-*-*-*-*-*-*-*-*-*-*-*-*-*-*-

e-|---------------------------------------------------------------------

B-|---------------------------------------------------------------------

G-|---------------------------------------------------------------------

D-|-14-14-12-12-11-11-11-11-12-12-11-11-9-9-9-9-14-14-12-12-11-11-11-11-

A-|-12-12-10-10--9--9--9--9-10-10--9--9-7-7-7-7-12-12-10-10--9--9--9--9-

E-|---------------------------------------------------------------------

e-|---------------------|

B-|---------------------|

G-|---------------------|

D-|-12-12-11-11-9-9-9-9-|

A-|-10-10--9--9-7-7-7-7-|

E-|---------------------|

e-|-----------------------------------------------------------------

B-|-----------------------------------------------------------------

G-|-----------------------------------------------------------------

D-|-4-4-4-4-4-4-4-4-----------------4-4-4-4-4-4-4-4-----------------

A-|-2-2-2-2-2-2-2-2-5-5-5-5-7-7-7-7-2-2-2-2-2-2-2-2-5-5-5-5-7-7-7-7-

E-|-----------------3-3-3-3-5-5-5-5-----------------3-3-3-3-5-5-5-5-

e-|-------------------------------------------------------------------------|

B-|-------------------------------------------------------------------------|

G-|-------------------------------------------------------------------------|

D-|-7-7-7-7-7-7-7-7-3-3-3-3-5-5-5-5-7-7-7-7-7-7-7-7-3-3-3-3-5-5-5-5-5-5-5-5-|

A-|-5-5-5-5-5-5-5-5-1-1-1-1-3-3-3-3-5-5-5-5-5-5-5-5-1-1-1-1-3-3-3-3-3-3-3-3-|

E-|-------------------------------------------------------------------------|

e-|-------------------------------------------------------------------------

B-|-------------------------------------------------------------------------

G-|-------------------------------------------------------------------------

D-|-----------------6-6-6-6-8-8-8-8-----------------6-6-6-6-8-8-8-8---------

A-|-3-3-3-3-3-3-3-3-4-4-4-4-6-6-6-6-3-3-3-3-3-3-3-3-4-4-4-4-6-6-6-6-3-3-3-3-

E-|-1-1-1-1-1-1-1-1-----------------1-1-1-1-1-1-1-1-----------------1-1-1-1-

e-|-----------------------------------------------------------------

B-|-----------------------------------------------------------------

G-|-----------------------------------------------------------------

D-|---------6-6-6-6-8-8-8-8-8-8-8-8-----------------6-6-6-6-6-6-6-6-

A-|-3-3-3-3-4-4-4-4-6-6-6-6-6-6-6-6-3-3-3-3-3-3-3-3-4-4-4-4-4-4-4-4-

E-|-1-1-1-1-------------------------1-1-1-1-1-1-1-1-----------------

e-|-------------------------------------|

B-|-------------------------------------|

G-|-------------------------------------|

D-|-8-8-8-8-8-8-8-8---------------------|

A-|-6-6-6-6-6-6-6-6-3-3-2-3-3-2-3-3-2-3-|

E-|-----------------1-1-0-1-1-0-1-1-0-1-|

e-|-----------------------------------------------------------------

B-|-----------------------------------------------------------------

G-|-----------------------------------------------------------------

D-|-4-4-4-4-4-4-4-4-----------------4-4-4-4-4-4-4-4-----------------

A-|-2-2-2-2-2-2-2-2-5-5-5-5-7-7-7-7-2-2-2-2-2-2-2-2-5-5-5-5-7-7-7-7-

E-|-----------------3-3-3-3-5-5-5-5-----------------3-3-3-3-5-5-5-5-

e-|-------------------------------------------------------------------------|

B-|-------------------------------------------------------------------------|

G-|-------------------------------------------------------------------------|

D-|-7-7-7-7-7-7-7-7-3-3-3-3-5-5-5-5-7-7-7-7-7-7-7-7-3-3-3-3-5-5-5-5-5-5-5-5-|

A-|-5-5-5-5-5-5-5-5-1-1-1-1-3-3-3-3-5-5-5-5-5-5-5-5-1-1-1-1-3-3-3-3-3-3-3-3-|

E-|-------------------------------------------------------------------------|

e-|-------------------------------------------------------------------------

B-|-------------------------------------------------------------------------

G-|-------------------------------------------------------------------------

D-|-----------------6-6-6-6-8-8-8-8-----------------6-6-6-6-8-8-8-8---------

A-|-3-3-3-3-3-3-3-3-4-4-4-4-6-6-6-6-3-3-3-3-3-3-3-3-4-4-4-4-6-6-6-6-3-3-3-3-

E-|-1-1-1-1-1-1-1-1-----------------1-1-1-1-1-1-1-1-----------------1-1-1-1-

e-|-----------------------------------------------------------------

B-|-----------------------------------------------------------------

G-|-----------------------------------------------------------------

D-|---------6-6-6-6-8-8-8-8-8-8-8-8-----------------6-6-6-6-6-6-6-6-

A-|-3-3-3-3-4-4-4-4-6-6-6-6-6-6-6-6-3-3-3-3-3-3-3-3-4-4-4-4-4-4-4-4-

E-|-1-1-1-1-------------------------1-1-1-1-1-1-1-1-----------------

e-|-------------------------------------|

B-|-------------------------------------|

G-|-------------------------------------|

D-|-8-8-8-8-8-8-8-8---------------------|

A-|-6-6-6-6-6-6-6-6-3-3-2-3-3-2-3-3-2-3-|

E-|-----------------1-1-0-1-1-0-1-1-0-1-|

=====================================================================

Get this song at:  amazon.com sheetmusicplus.com

Share your thoughts

0 Comments found