No Use for a Name

No Use for a Name - Best Regards guitar tab

-------------------------------------------------------------------------------

BEST REGARDS - No Use For A Name

-------------------------------------------------------------------------------

BY JONNY APPLESEED

RYTHYM NOT TABBED

INTRO PART 1:

GUITAR 1:

e|--------------------------------------------------------------------|

B|--------------------------------------------------------------------|

G|-10-8-6--10-8-6--10-10-10-8-8-8-6-6-6-6-6--10-10-10-8-8-8-6-6-6-6-6-|

D|-10-8-6--10-8-6--10-10-10-8-8-8-6-6-6-6-6--10-10-10-8-8-8-6-6-6-6-6-|

A|--8-6-4---8-6-4---8--8--8-6-6-6-4-4-4-4-4---8--8--8-6-6-6-4-4-4-4-4-|

E|--------------------------------------------------------------------|

GUITAR 2:

e|------------------------------------------------------------------------|

B|------------------------------------------------------------------------|

G|-----------------13-13-13-12-12-12-18-18-18--13-13-13-12-12-12-18-18-18-|

D|------------------X--X--X--X--X--X--X--X--X---X--X--X--X--X--X--X--X--X-|

A|-----------------11-11-11-10-10-10-16-16-16--11-11-11-10-10-10-16-16-16-|

E|------------------------------------------------------------------------|

INTRO PART 2:

GUITAR 1:

e|---------|

B|---------|

G|-6-5-3---|

D|-6-5-3-6-|

A|-4-3-1-6-|

E|-------4-|

GUITAR 2:

e|-------------|

B|-------------|

G|-18-17-14-13-|

D|--X--X--X--X-|

A|-16-15-12-11-|

E|-------------|

VERSE 1:

GUITAR 1:

e|------------------------------------------------------------------|

B|------------------------------------------------------------------|

G|-----------------6-6-6-6-6-6-6-6--10-10-10-8-8-8-6-6-6--10-10-8-8-|

D|-6-6-6-6-6-6-6-6-6-6-6-6-6-6-6-6--10-10-10-8-8-8-6-6-6--10-10-8-8-|

A|-6-6-6-6-6-6-6-6-4-4-4-4-4-4-4-4---8--8--8-6-6-6-4-4-4---8--8-6-6-|

E|-4-4-4-4-4-4-4-4--------------------------------------------------|

GUITAR 2:

e|--------------------------------------------------------------------|

B|--------------------------------------------------------------------|

G|-----------------6-6-6-6-6-6-6-6--10-10-10-8-8-8-6-6-6--13-13-12-12-|

D|-6-6-6-6-6-6-6-6-6-6-6-6-6-6-6-6--10-10-10-8-8-8-6-6-6---X--X--X--X-|

A|-6-6-6-6-6-6-6-6-4-4-4-4-4-4-4-4---8--8--8-6-6-6-4-4-4--11-11-10-10-|

E|-4-4-4-4-4-4-4-4----------------------------------------------------|

GUITAR 1&2 2ND TIME:

e|---------------------------------------------------------------|

B|---------------------------------------------------------------|

G|-----------------6-6-6-6-6-6-6-6--10-10-10-8-8-8-6-6-6-8-8-5-5-|

D|-6-6-6-6-6-6-6-6-6-6-6-6-6-6-6-6--10-10-10-8-8-8-6-6-6-8-8-5-5-|

A|-6-6-6-6-6-6-6-6-4-4-4-4-4-4-4-4---8--8--8-6-6-6-4-4-4-6-6-3-3-|

E|-4-4-4-4-4-4-4-4-----------------------------------------------|

CHORUS 1:

BOTH GUITARS:

e|-----------------------------------------------------|

B|-----------------------------------------------------|

G|-10-10-10-10-8-8-8-8-6-6-6-6---------8-8-8-8---------|

D|-10-10-10-10-8-8-8-8-6-6-6-6-5-5-5-5-8-8-8-8-8-8-8-8-|

A|--8--8--8--8-6-6-6-6-4-4-4-4-6-6-6-6-6-6-6-6-7-7-7-7-|

E|-----------------------------------------------------|

BRIDGE:

GUITAR 1:

e|------------------------------------------------------------------|

B|------------------------------------------------------------------|

G|-10-10-10-8-8-8-6-6-6-6-6--10-10-10-8-8-8-6-6-6-6-6-------6-5-3---|

D|-10-10-10-8-8-8-6-6-6-6-6--10-10-10-8-8-8-6-6-6-6-6-------6-5-3-6-|

A|--8--8--8-6-6-6-4-4-4-4-4---8--8--8-6-6-6-4-4-4-4-4-------4-3-1-6-|

E|----------------------------------------------------------------4-|

GUITAR 2:

e|----------------------------------------------------------------------|

B|----------------------------------------------------------------------|

G|-13-13-13-12-12-12-18-18-18--13-13-13-12-12-12-18-18-18---18-17-14-13-|

D|--X--X--X--X--X--X--X--X--X---X--X--X--X--X--X--X--X--X----X--X--X--X-|

A|-11-11-11-10-10-10-16-16-16--11-11-11-10-10-10-16-16-16---16-15-12-11-|

E|----------------------------------------------------------------------|

VERSE 2:

GUITAR 1:

e|------------------------------------------------------------------|

B|------------------------------------------------------------------|

G|-----------------6-6-6-6-6-6-6-6--10-10-10-8-8-8-6-6-6--10-10-8-8-|

D|-6-6-6-6-6-6-6-6-6-6-6-6-6-6-6-6--10-10-10-8-8-8-6-6-6--10-10-8-8-|

A|-6-6-6-6-6-6-6-6-4-4-4-4-4-4-4-4---8--8--8-6-6-6-4-4-4---8--8-6-6-|

E|-4-4-4-4-4-4-4-4--------------------------------------------------|

GUITAR 2:

e|--------------------------------------------------------------------|

B|--------------------------------------------------------------------|

G|-----------------6-6-6-6-6-6-6-6--10-10-10-8-8-8-6-6-6--13-13-12-12-|

D|-6-6-6-6-6-6-6-6-6-6-6-6-6-6-6-6--10-10-10-8-8-8-6-6-6---X--X--X--X-|

A|-6-6-6-6-6-6-6-6-4-4-4-4-4-4-4-4---8--8--8-6-6-6-4-4-4--11-11-10-10-|

E|-4-4-4-4-4-4-4-4----------------------------------------------------|

GUITAR 1&2 2ND TIME:

e|---------------------------------------------------------------|

B|---------------------------------------------------------------|

G|-----------------6-6-6-6-6-6-6-6--10-10-10-8-8-8-6-6-6-8-8-5-5-|

D|-6-6-6-6-6-6-6-6-6-6-6-6-6-6-6-6--10-10-10-8-8-8-6-6-6-8-8-5-5-|

A|-6-6-6-6-6-6-6-6-4-4-4-4-4-4-4-4---8--8--8-6-6-6-4-4-4-6-6-3-3-|

E|-4-4-4-4-4-4-4-4-----------------------------------------------|

CHORUS 2:

BOTH GUITARS:

e|----------------------------------------|

B|----------------------------------------|

G|-10-10-10-8-8-8-6-6-6-------8-8-8-------|

D|-10-10-10-8-8-8-6-6-6-5-5-5-8-8-8-8-8-8-|

A|--8--8--8-6-6-6-4-4-4-6-6-6-6-6-6-7-7-7-|

E|----------------------------------------|

SOLO:

GUITAR 1:

e|---------------------------------------------------------------|

B|---------------------------------------------------------------|

G|-----------------6-6-6-6-6-6-6-6--10-10-10-8-8-8-6-6-6-6-6-6-6-|

D|-6-6-6-6-6-6-6-6-6-6-6-6-6-6-6-6--10-10-10-8-8-8-6-6-6-6-6-6-6-|

A|-6-6-6-6-6-6-6-6-4-4-4-4-4-4-4-4---8--8--8-6-6-6-4-4-4-4-4-4-4-|

E|-4-4-4-4-4-4-4-4-----------------------------------------------|

e|---------------------------------------------------------------|

B|---------------------------------------------------------------|

G|-----------------6-6-6-6-6-6-6-6--10-10-10-8-8-8-6-6-6-5-5-5-5-|

D|-6-6-6-6-6-6-6-6-6-6-6-6-6-6-6-6--10-10-10-8-8-8-6-6-6-5-5-5-5-|

A|-6-6-6-6-6-6-6-6-4-4-4-4-4-4-4-4---8--8--8-6-6-6-4-4-4-3-3-3-3-|

E|-4-4-4-4-4-4-4-4-----------------------------------------------|

GUITAR 2: NO IDEA!!

OUTRO:

BOTH GUITARS:

e|-----------------------------------------------|

B|-----------------------------------------------|

G|-10-10-10-10-8-8-8-8-6-6-6-6---------8-8-8-8---|

D|-10-10-10-10-8-8-8-8-6-6-6-6-5-5-5-5-8-8-8-8-8-|

A|--8--8--8--8-6-6-6-6-4-4-4-4-6-6-6-6-6-6-6-6-7-|

E|-----------------------------------------------|

QUESTIONS OR CORRECTIONS PUNKJ@HOTMAIL.COM

-------------------------------------------------------------------------------

Get this song at:  amazon.com sheetmusicplus.com

Share your thoughts

0 Comments found