No Use for a Name

No Use for a Name - Any Number Can Play guitar tab

----------------------------------------------------------------------

No Use For A Name - Any Number Can Play

----------------------------------------------------------------------

Ok, i'm Chad Lemon and i'm from Ohio and i just tabbed this song and i'm not copying anybody because there's no tab for this song yet so i had to figure it out.

Ok. here's the key

( )= palm mute

< = pick slide

x = play note how many times

INTRO

e|---------------------------------------------------

B|---------------------------------------------------

G|-5-(5-5-5-5-5-5-5-5-5-5-5-5-5-5-5-5)-5-5-5-5-5-5---

D|-5-(5-5-5-5-5-5-5-5-5-5-5-5-5-5-5-5)-5-5-5-5-5-5-5-

A|-3-(3-3-3-3-3-3-3-3-3-3-3-3-3-3-3-3)-3-3-3-3-3-3-5-

E|-------------------------------------------------3-

VERSE 1 (PLAY 2 TIMES)

e|---------------------------------------------------

B|---------------------------------------------------

G|-

Get this song at:  amazon.com sheetmusicplus.com

Share your thoughts

0 Comments found