No Use for a Name

No Use for a Name - Angela guitar tab

intro (I didn't mean to...)

e|---------------------------------------------------------------------------|

B|---------------------------------------------------------------------------|

G|---5---5---7-9-7-6-5-7-4-7-5-8---------------------------------------------|

D|-5-5-5-5-5-7-9-7-6-5-7-4-7-5-8---------------------------------------------|

A|-5-3-5-3-5-5-7-5-4-3-5-2-5-3-6---------------------------------------------|

E|-3---3---3-----------------------------------------------------------------|

Chorus (Angela i'm sorry...)

e|---------------------------------------------------------------------------|

B|---------------------------------------------------------------------------|

G|-------5-----7-------------5--7--------------------------------------------|

D|-5--2--5--5--7-------5--2--5--7--------------------------------------------|

A|-5--2--3--5--5-------5--2--3--5--------------------------------------------|

E|-3--0-----3----------3--0--------------------------------------------------|

Verse (Remember when we dance...)

e|---------------------------------------------------------------------------|

B|---------------------------------------------------------------------------|

G|---5---5---7-9-7-6-5-7-5-8-------------------------------------------------|

D|-5-5-5-5-5-7-9-7-6-5-7-5-8-------------------------------------------------|

A|-5-3-5-3-5-5-7-5-4-3-5-3-6-------------------------------------------------|

E|-3---3---3-----------------------------------------------------------------|

Chorus

e|---------------------------------------------------------------------------|

B|---------------------------------------------------------------------------|

G|-----5---7-----------5-7---------------------------------------------------|

D|-5-2-5-5-7-------5-2-5-7---------------------------------------------------|

A|-5-2-3-5-5-------5-2-3-5---------------------------------------------------|

E|-3-0---3---------3-0-------------------------------------------------------|

Bridge

e|---------------------------------------------------------------------------|

B|-...pm..-------------------------------------------------------------------|

G|-----5-7-------------------------------------------------------------------|

D|-5-2-5-7---5-4-2-----------------------------------------------------------|

A|-5-2-3-5---5-4-2-----------------------------------------------------------|

E|-3-0-------3-2-0-----------------------------------------------------------|

Solo (i didn't figured it out yet)

Chorus/outro

e|---------------------------------------------------------------------------|

B|---------------------------------------------------------------------------|

G|-----5-7---5-7-----5-7-----------------------------------------------------|

D|-5-2-5-7-2-5-7-5-2-5-7------5----------------------------------------------|

A|-5-2-3-5-2-3-5-5-2-3-5------5----------------------------------------------|

E|-3-0-----0-----3-0----------3----------------------------------------------|

This is only the chords, you'll have to figure out the rythm by yourself. Hope

it's right! MG

Get this song at:  amazon.com sheetmusicplus.com

Share your thoughts

0 Comments found