No Use for a Name

No Use for a Name - Angela bass tab

I really like this song because my girlfriend's name is Angela. I LOVE ANGELA!! Correct

me or rate this if I'm wrong. Tabbed in 16th notes.

Artist:No Use for a Name

Song:Angela

Album:Rock Hard Bottom

Tabbed by:Fandangle (JettGem@aol.com)

Intro (0:00) "I didn't mean to drag her under..."

G|7~------7~------|5~------5~------|4~------4~------|5~------5---5---|

D|----------------|----------------|----------------|----------------|

A|----------------|----------------|----------------|----------------|

E|----------------|----------------|----------------|----------------|

G|7~------7~------|7~------2---4---|0~------2~------|6~------7---9/--|

D|----------------|----------------|----------------|----------------|

A|----------------|----------------|----------------|----------------|

E|----------------|----------------|----------------|----------------|

G|12~-----12~-----|14~-----14~-----|16~-----16~-----|16-----11--12--|

D|----------------|----------------|----------------|----------------|

A|----------------|----------------|----------------|----------------|

E|----------------|----------------|----------------|----------------|

G|12~-----12~-----|----------------|

D|----------------|----------------|

A|----------------|33333333/15-----|

E|----------------|----------------|

Chorus Thingy (0:36) "Angela, don't hate me..."

G|----------------|----------------|----------------|----------------|

D|----------------|2222222222222222|----------------|----------------|

A|----------------|----------------|33333333--------|5555555555555555|

E|3333333333333333|----------------|--------33333333|----------------|

G|----------------|----------------|----------------|----------------|

D|----------------|2222222222222222|----------------|----------------|

A|----------------|----------------|3333333355555555|----------------|

E|3333333333333333|----------------|----------------|3333333333333333|

Verse (0:56) "Remember when we danced together..."

G|----------------|----------------|----------------|----------------|

D|----------------|--------2---4---|5-------5-------|--------5---3---|

A|------------2---|3---------------|------------2---|3---------------|

E|3---------------|----------------|----------------|----------------|

G|----------------|----------------|----------------|----------------|

D|----------------|----------------|----------------|2---------------|

A|------------2---|5---------------|2-------0-------|----------------|

E|3---------------|----------------|----------------|----------------|

G|----------------|----------------|----------------|----------------|

D|----------------|----------------|2222222222222222|----------------|

A|----------------|5555555555555555|----------------|5555555555555555|

E|3333333333333333|----------------|----------------|----------------|

G|----------------|----------------|

D|----------------|----------------|

A|3333333333333333|33333333/15-----|

E|----------------|----------------|

Chorus Again (1:32) "Angela, I'm sorry..."

G|----------------|----------------|----------------|----------------|

D|----------------|2222222222222222|----------------|----------------|

A|----------------|----------------|33333333--------|5555555555555555|

E|3333333333333333|----------------|--------33333333|----------------|

G|----------------|----------------|----------------|----------------|

D|----------------|2222222222222222|----------------|----------------|

A|----------------|----------------|3333333355555555|----------------|

E|3333333333333333|----------------|----------------|3333333333333333|

Guitar Solo (1:51) (I tabbed this in 32nd notes)

G|----------------|----------------|----------------|----------------|

D|----------------|----------------|----------------|----------------|

A|----------------|----------------|----------------|----------------|

E|3-3-33333-3-3333|3-3-33333-3-3333|0-0-00000-0-0000|0-0-00000-0-0000|

G|----------------|----------------|----------------|----------------|

D|----------------|----------------|----------------|----------------|

A|5-5-55555-5-5555|5-5-55555-5-5555|3-3-33333-3-3333|3-3-33333-3-3333|

E|----------------|----------------|----------------|----------------|

G|----------------|----------------|----------------|----------------|

D|----------------|----------------|----------------|----------------|

A|----------------|----------------|----------------|----------------|

E|3-3-33333-3-3333|3-3-----3---2---|0-0-0-0-0-0-0-0-|0-0-0-0-0-0-0-0-|

G|----------------|----------------|----------------|----------------|

D|----------------|----------------|----------------|----------------|

A|5-5-5-5-5-5-5-5-|5-5-5-5-5-5-5-5-|3-3-3-3-3-3-3-3-|3-3-3-3-3-3-3-3-|

E|----------------|----------------|----------------|----------------|

G|----------------|----------------|

D|----------------|----------------|

A|3-3-3-3-3-3-3-3-|3-3-3-3-3-3-3-3-|

E|----------------|----------------|

Outro (2:14) "Angela, I'm sorry..."

G|----------------|----------------|----------------|----------------|

D|----------------|2222222222222222|----------------|2---4---5---7---|

A|----------------|----------------|3333333355555555|----------------|

E|3333333333333333|----------------|----------------|----------------|

G|----------------|----------------|----------------|----------------|----|

D|10------12------|5555555555555555|2222222222222222|----------------|----|

A|----------------|----------------|----------------|3-------5-------|----|

E|----------------|----------------|----------------|----------------|3~--|

I love you, Angela!!!!!!!!!!!!!

JILLZ + JETT

11.25.02

>>

Taken from The BassMasta -- http://www.tabs-database.com

Get this song at:  amazon.com

Share your thoughts

0 Comments found