No Use for a Name

No Use for a Name - Always Carrie guitar tab

-------------------------------------------------------------------------------

ALWAYS CARRIE - No Use For A Name

-------------------------------------------------------------------------------

BY:JONNY APPLESEED

RYTHM NOT TABBED

INTRO

e|-----------------------------------------|

B|-----------------------------------------|

G|-8--7--8--7--10-----8--7--8--7--10--8--7-|

D|-8--7--8--7--10-----8--7--8--7--10--8--7-|

A|-6--5--6--5---8-----6--5--6--5---8--6--5-|

E|-----------------------------------------|

VERSE:

e|--------------------------------->

B|-[----PALM MUTE-----PALM MUTE--]->

G|-5-5-5-5-3-3-3-3---------8-8-8-8->

D|-5-5-5-5-3-3-3-3-6-6-6-6-8-8-8-8->

A|-3-3-3-3-1-1-1-1-6-6-6-6-6-6-6-6->

E|-----------------4-4-4-4--------->

e|------------------------------------------|

B|-[PALM MUTE---PALM MUTE-]-----------------|

G|-5-5-5-5-3-3-3-3----------8-8-8-8---------|

D|-5-5-5-5-3-3-3-3-6-6-6-6--8-8-8-8-8-8-8-8-|

A|-3-3-3-3-1-1-1-1-6-6-6-6--6-6-6-6-8-8-8-8-|

E|-----------------4-4-4-4----------6-6-6-6-|

e|--------------------------------->

B|--------------------------------->

G|-5-5-5-5-3-3-3-3---------8-8-8-8->

D|-5-5-5-5-3-3-3-3-6-6-6-6-8-8-8-8->

A|-3-3-3-3-1-1-1-1-6-6-6-6-6-6-6-6->

E|-----------------4-4-4-4--------->

e|---------------------------------|

B|---------------------------------|

G|-5-5-5-5-----------------8-8-8-8-|

D|-5-5-5-5-5-5-5-5-6-6-6-6-8-8-8-8-|

A|-3-3-3-3-5-5-5-5-6-6-6-6-6-6-6-6-|

E|---------3-3-3-3-4-4-4-4---------|

PRE-CHORUS:

e|-----------------------------------------|

B|-----------------------------------------|

G|-3-3-3-3-5-5-5-5---------8-8-8-8-3-3-3-3-|

D|-3-3-3-3-5-5-5-5-3-3-3-3-8-8-8-8-3-3-3-3-|

A|-1-1-1-1-3-3-3-3-3-3-3-3-6-6-6-6-1-1-1-1-|

E|-----------------1-1-1-1-----------------|

CHORUS:

e|---------------------------------|

B|---------------------------------|

G|---------5-5-5-5-----------------|

D|-6-6-6-6-5-5-5-5-6-6-6-6-5-5-5-5-|

A|-6-6-6-6-3-3-3-3-6-6-6-6-5-5-5-5-|

E|-4-4-4-4---------4-4-4-4-3-3-3-3-|

SOLO:ONLY KNOW THE RYTHM GUITAR HERE...

e|--------------------------------->

B|--------------------------------->

G|-5-5-5-5-3-3-3-3----------------->

D|-5-5-5-5-3-3-3-3-3-3-3-3-6-6-6-6->

A|-3-3-3-3-1-1-1-1-3-3-3-3-6-6-6-6->

E|-----------------1-1-1-1-4-4-4-4->

e|-----------------------------------------------|

B|-----------------------------------------------|

G|-5-5-5-5-3-3-3-3-----------------3-3-3-3-3-3-3-|

D|-5-5-5-5-3-3-3-3-3-3-3-3-6-6-6-6-3-3-3-3-3-3-3-|

A|-3-3-3-3-1-1-1-1-3-3-3-3-6-6-6-6-1-1-1-1-1-1-1-|

E|-----------------1-1-1-1-4-4-4-4---------------|

VERSE 2:

e|--------------------------------->

B|-[----PALM MUTE-----PALM MUTE--]->

G|-5-5-5-5-3-3-3-3---------8-8-8-8->

D|-5-5-5-5-3-3-3-3-6-6-6-6-8-8-8-8->

A|-3-3-3-3-1-1-1-1-6-6-6-6-6-6-6-6->

E|-----------------4-4-4-4--------->

e|------------------------------------------|

B|-[PALM MUTE---PALM MUTE-]-----------------|

G|-5-5-5-5-3-3-3-3----------8-8-8-8---------|

D|-5-5-5-5-3-3-3-3-6-6-6-6--8-8-8-8-8-8-8-8-|

A|-3-3-3-3-1-1-1-1-6-6-6-6--6-6-6-6-8-8-8-8-|

E|-----------------4-4-4-4----------6-6-6-6-|

e|--------------------------------->

B|--------------------------------->

G|-5-5-5-5-3-3-3-3---------8-8-8-8->

D|-5-5-5-5-3-3-3-3-6-6-6-6-8-8-8-8->

A|-3-3-3-3-1-1-1-1-6-6-6-6-6-6-6-6->

E|-----------------4-4-4-4--------->

e|---------------------------------|

B|---------------------------------|

G|-5-5-5-5-----------------8-8-8-8-|

D|-5-5-5-5-5-5-5-5-6-6-6-6-8-8-8-8-|

A|-3-3-3-3-5-5-5-5-6-6-6-6-6-6-6-6-|

E|---------3-3-3-3-4-4-4-4---------|

PRE-CHORUS 2:

e|-----------------------------------------|

B|-----------------------------------------|

G|-3-3-3-3-5-5-5-5---------8-8-8-8-3-3-3-3-|

D|-3-3-3-3-5-5-5-5-3-3-3-3-8-8-8-8-3-3-3-3-|

A|-1-1-1-1-3-3-3-3-3-3-3-3-6-6-6-6-1-1-1-1-|

E|-----------------1-1-1-1-----------------|

CHORUS 2:

e|---------------------------------|

B|---------------------------------|

G|---------5-5-5-5-----------------|

D|-6-6-6-6-5-5-5-5-6-6-6-6-5-5-5-5-|

A|-6-6-6-6-3-3-3-3-6-6-6-6-5-5-5-5-|

E|-4-4-4-4---------4-4-4-4-3-3-3-3-|

OUTRO:

e|--------------------------------->

B|--------------------------------->

G|-5-5-5-5-3-3-3-3----------------->

D|-5-5-5-5-3-3-3-3-6-6-6-6-5-5-5-5->

A|-3-3-3-3-1-1-1-1-6-6-6-6-5-5-5-5->

E|-----------------4-4-4-4-3-3-3-3->

e|------------------------------3--3------|

B|-----------------------------3----3-----|

G|--5-5-5-5-3-3-3-3-----------5------5----|

D|--5-5-5-5-3-3-3-3--6--5----5--------5---|

A|--3-3-3-3-1-1-1-1--6--5---3----------3--|

E|-------------------4--3-----------------|

QUESTIONS OR CORRECTIONS PUNKJ@HOTMAIL.COM

-------------------------------------------------------------------------------

Get this song at:  amazon.com sheetmusicplus.com

Share your thoughts

0 Comments found