No Use for a Name

No Use for a Name - Always Carrie bass tab

Band:No Use For A Name

Song:

Album:More Betterness

Tabbed by Kyle Gayne

Intro(bass enters at 0:05)

G:------------------------------------------------------------------|

D:------------------------------------------------------------------|

A:-3-3-3-33-33-3-3---------------------------------------66-66-6-6--|x2

E:-----------------6-6-6-66-66-6-6-1-1-1-11-11-1-1-4-4-4------------|

G:----------------------------------|

D:----------------------------------|

A:-3-3-3-33-33-3-3------------------|x1

E:-----------------6-6-6-6-6--------|

Verse

G:------------------------------------------------------------------|

D:------------------------------------------------------------------|

A:-3-3-3-33-33-3-3---------------------------------6-6-6-66-66-6-6--|x1

E:-----------------6-6-6-66-66-6-6-4-4-4-44-44-4-4------------------|

G:------------------------------------------------------------------|

D:------------------------------------------------------------------|

A:-3-3-3-33-33-3-3---------------------------------6-6-6-6-5-5-5-5--|x1

E:-----------------6-6-6-66-66-6-6-4-4-4-44-44-4-4------------------|

G:------------------------------------------------------------------|

D:------------------------------------------------------------------|

A:-3-3-3-33-33-3-3---------------------------------6-6-6-66-66-6-6--|x1

E:-----------------6-6-6-66-66-6-6-4-4-4-44-44-4-4------------------|

G:------------------------------------------------------------------|

D:------------------------------------------------------------------|

A:-3-3-3-33-33-3-3---------------------------------6-6-6-66-66-6-6--|x1

E:-----------------3-3-3-33-33-3-3-4-4-4-44-44-4-4------------------|

Chorus 1

G:------------------------------------------------------------------|

D:------------------------------------------------------------------|

A:---------------------------------3-33-33-3-33-33-3-33-33-3-6-5-3--|x1

E:-6-66-66-6-66-66-6-66-66-6-66-66----------------------------------|

G:------------------------------------------------------------------|

D:------------------------------------------------------------------|

A:-----------------6-66-66-6-66-66----------------------------------|x1

E:-1-11-11-1-11-11-----------------6-66-66-6-66-66-6-66-66-6-66-66--|

G:------------------------------------------------------------------|

D:------------------------------------------------------------------|

A:---------------------------------3-33-33-3-33-33-3-33-33-3-33-33--|x1

E:-4-44-44-4-44-44-4-44-44-4-44-44----------------------------------|

G:----------------------------------|

D:----------------------------------|

A:----------------------------------|x1

E:-4-44-44-4-44-44-3-33-33-3-33-33--|

Bridge

G:------------------------------------------------------------------|

D:------------------------------------------------------------------|

A:-3-3-3-33-33-3-3---------------------------------------66-66-6-6--|x2

E:-----------------6-6-6-66-66-6-6-1-1-1-11-11-1-1-4-4-4------------|

G:----------------------------------|

D:----------------------------------|

A:----------------------------------|x1

E:-6-6-6-66-66-6-6-6-6-6-6-6--------|

Repeat:

Verse

Chorus 2

G:------------------------------------------------------------------|

D:------------------------------------------------------------------|

A:---------------------------------3-33-33-3-33-33-3-33-33-3-6-5-3--|x1

E:-6-66-66-6-66-66-6-66-66-6-66-66----------------------------------|

G:------------------------------------------------------------------|

D:------------------------------------------------------------------|

A:-----------------6-66-66-6-66-66----------------------------------|x1

E:-1-11-11-1-11-11-----------------6-66-66-6-66-66-6-66-66-6-66-66--|

G:------------------------------------------------------------------|

D:------------------------------------------------------------------|

A:---------------------------------3-33-33-3-33-33-3-33-33-3-33-33--|x1

E:-4-44-44-4-44-44-4-44-44-4-44-44----------------------------------|

G:------------------------------------------------------------------|

D:------------------------------------------------------------------|

A:---------------------------------3-33-33-3-33-33------------------|x2

E:-4-44-44-4-44-44-3-33-33-3-33-33-----------------6-66-66-6-66-66--|

G:------------------------------------------------------------------|

D:------------------------------------------------------------------|

A:---------------------------------3~~~~~~~~~~~~~~~-----------------|x1

E:-4---------------3~~~~~~~-----------------------------------------|

Taken from The BassMasta -- http://www.tabs-database.com

Get this song at:  amazon.com sheetmusicplus.com

Share your thoughts

0 Comments found