No Use for a Name

No Use for a Name - Alone guitar tab

-*-*-*-*-*-*-*-*-*-*-*-*-*-*-*-*-*-*-*-*-*-*-*-*-*-*-*-*-*-*-*-*-*-*-*-

Song: alone

Artist: no use for a name

Author: Roy Stevenson (are_you_done@yahoo.com)

Tuning: standard

-*-*-*-*-*-*-*-*-*-*-*-*-*-*-*-*-*-*-*-*-*-*-*-*-*-*-*-*-*-*-*-*-*-*-*-

e-|-----------------------------------------------------------------

B-|-----------------------------------------------------------------

G-|-----------------------------------------------------------------

D-|-----------------------------------------------------------------

A-|-7-7-7-7-7-7-7-7-7-7-7-7-7-7-7-7-4-4-4-4-4-4-4-4-4-4-4-4-2-2-2-2-

E-|-5-5-5-5-5-5-5-5-5-5-5-5-5-5-5-5-2-2-2-2-2-2-2-2-2-2-2-2-0-0-0-0-

e-|-----------------------------------------------------------------

B-|-----------------------------------------------------------------

G-|-----------------------------------------------------------------

D-|-7-7-7-7-7-7-7-7-6-6-6-6-6-6-6-6-4-4-4-4-4-4-4-4-4-4-4-4-4-4-4-4-

A-|-5-5-5-5-5-5-5-5-4-4-4-4-4-4-4-4-2-2-2-2-2-2-2-2-2-2-2-2-2-2-2-2-

E-|-----------------------------------------------------------------

e-|-----------------------------------------------------------------

B-|-----------------------------------------------------------------

G-|-----------------------------------------------------------------

D-|-----------------------------------------------------------------

A-|-7-7-7-7-7-7-7-7-7-7-7-7-7-7-7-7-4-4-4-4-4-4-4-4-4-4-4-4-2-2-2-2-

E-|-5-5-5-5-5-5-5-5-5-5-5-5-5-5-5-5-2-2-2-2-2-2-2-2-2-2-2-2-0-0-0-0-

e-|-----------------------------------------------------------------|

B-|-----------------------------------------------------------------|

G-|-----------------------------------------------------------------|

D-|-7-7-7-7-7-7-7-7-9-9-9-9-9-9-9-9-7-7-7-7-7-7-7-7-7-7-7-7-7-7-7-7-|

A-|-5-5-5-5-5-5-5-5-7-7-7-7-7-7-7-7-5-5-5-5-5-5-5-5-5-5-5-5-5-5-5-5-|

E-|-----------------------------------------------------------------|

e-|-----------------------------------------------------------------

B-|-----------------------------------------------------------------

G-|-----------------------------------------------------------------

D-|---------------------------------14-14-x-14-14-x-14-14-x-14-14---

A-|-4-4-4-4-4-4-4-4-5-5-5-5-5-5-5-5-12-12-x-12-12-x-12-12-x-12-12---

E-|-2-2-2-2-2-2-2-2-3-3-3-3-3-3-3-3---------------------------------

e-|-----------------------------------------------------------------

B-|-----------------------------------------------------------------

G-|-----------------------------------------------------------------

D-|---------------------------------14-14-x-14-14-x-14-14-x-14-14---

A-|-4-4-4-4-4-4-4-4-5-5-5-5-5-5-5-5-12-12-x-12-12-x-12-12-x-12-12---

E-|-2-2-2-2-2-2-2-2-3-3-3-3-3-3-3-3---------------------------------

e-|-----------------------------------------------------------------

B-|-----------------------------------------------------------------

G-|-----------------------------------------------------------------

D-|---------------------------------14-14-x-14-14-x-14-14-x-14-14---

A-|-4-4-4-4-4-4-4-4-5-5-5-5-5-5-5-5-12-12-x-12-12-x-12-12-x-12-12---

E-|-2-2-2-2-2-2-2-2-3-3-3-3-3-3-3-3---------------------------------

e-|-------------------------------------------------------------------|

B-|-------------------------------------------------------------------|

G-|-------------------------------------------------------------------|

D-|-11-11-11-11-11-11-11-11-12-12-12-12-12-12-12-12-9-9-9-9-9-9-9-9-9-|

A-|--9--9--9--9--9--9--9--9-10-10-10-10-10-10-10-10-7-7-7-7-7-7-7-7-7-|

E-|-------------------------------------------------------------------|

e-|-----------------------------------------------------------------

B-|-----------------------------------------------------------------

G-|-----------------------------------------------------------------

D-|-----------------------------------------------------------------

A-|-7-7-7-7-7-7-7-7-7-7-7-7-7-7-7-7-4-4-4-4-4-4-4-4-4-4-4-4-2-2-2-2-

E-|-5-5-5-5-5-5-5-5-5-5-5-5-5-5-5-5-2-2-2-2-2-2-2-2-2-2-2-2-0-0-0-0-

e-|-----------------------------------------------------------------

B-|-----------------------------------------------------------------

G-|-----------------------------------------------------------------

D-|-7-7-7-7-7-7-7-7-6-6-6-6-6-6-6-6-4-4-4-4-4-4-4-4-4-4-4-4-4-4-4-4-

A-|-5-5-5-5-5-5-5-5-4-4-4-4-4-4-4-4-2-2-2-2-2-2-2-2-2-2-2-2-2-2-2-2-

E-|-----------------------------------------------------------------

e-|-----------------------------------------------------------------

B-|-----------------------------------------------------------------

G-|-----------------------------------------------------------------

D-|-----------------------------------------------------------------

A-|-7-7-7-7-7-7-7-7-7-7-7-7-7-7-7-7-4-4-4-4-4-4-4-4-4-4-4-4-2-2-2-2-

E-|-5-5-5-5-5-5-5-5-5-5-5-5-5-5-5-5-2-2-2-2-2-2-2-2-2-2-2-2-0-0-0-0-

e-|-----------------------------------|

B-|-----------------------------------|

G-|-----------------------------------|

D-|-7-7-7-7-7-7-7-7-9-9-9-9-9-9-9-9-7-|

A-|-5-5-5-5-5-5-5-5-7-7-7-7-7-7-7-7-5-|

E-|-----------------------------------|

e-|-----------------------------------------------------------------

B-|-----------------------------------------------------------------

G-|-----------------------------------------------------------------

D-|---------------------------------14-14-x-14-14-x-14-14-x-14-14---

A-|-4-4-4-4-4-4-4-4-5-5-5-5-5-5-5-5-12-12-x-12-12-x-12-12-x-12-12---

E-|-2-2-2-2-2-2-2-2-3-3-3-3-3-3-3-3---------------------------------

e-|-----------------------------------------------------------------

B-|-----------------------------------------------------------------

G-|-----------------------------------------------------------------

D-|---------------------------------14-14-x-14-14-x-14-14-x-14-14---

A-|-4-4-4-4-4-4-4-4-5-5-5-5-5-5-5-5-12-12-x-12-12-x-12-12-x-12-12---

E-|-2-2-2-2-2-2-2-2-3-3-3-3-3-3-3-3---------------------------------

e-|-----------------------------------------------------------------

B-|-----------------------------------------------------------------

G-|-----------------------------------------------------------------

D-|---------------------------------14-14-x-14-14-x-14-14-x-14-14---

A-|-4-4-4-4-4-4-4-4-5-5-5-5-5-5-5-5-12-12-x-12-12-x-12-12-x-12-12---

E-|-2-2-2-2-2-2-2-2-3-3-3-3-3-3-3-3---------------------------------

e-|-------------------------------------------------------------------|

B-|-------------------------------------------------------------------|

G-|-------------------------------------------------------------------|

D-|-11-11-11-11-11-11-11-11-12-12-12-12-12-12-12-12-9-9-9-9-9-9-9-9-9-|

A-|--9--9--9--9--9--9--9--9-10-10-10-10-10-10-10-10-7-7-7-7-7-7-7-7-7-|

E-|-------------------------------------------------------------------|

ScrewThisSolo...MaybeSomeOtherDay

e-|----------------------------------------------------------------

B-|----------------------------------------------------------------

G-|----------------------------------------------------------------

D-|----------------------------------------------------------------

A-|-7---------------5-5-5-5-5-5-5-5-3-3-3-3-3-3-3-3-5-5-5-5-5-5-5-5-

E-|-5---------------3-3-3-3-3-3-3-3-1-1-1-1-1-1-1-1-3-3-3-3-3-3-3-3-

e-|----------------------------------------------------------------

B-|----------------------------------------------------------------

G-|----------------------------------------------------------------

D-|----------------------------------------------------------------

A-|-7-7-7-7-7-7-7-7-5-5-5-5-5-5-5-5-3-3-3-3-3-3-3-3-5-5-5-5-5-5-5-5-

E-|-5-5-5-5-5-5-5-5-3-3-3-3-3-3-3-3-1-1-1-1-1-1-1-1-3-3-3-3-3-3-3-3-

e-|----------------------------------------------------------------------

B-|----------------------------------------------------------------------

G-|----------------------------------------------------------------------

D-|-----------------5-5-5-5-5-5-5-5-10-10-10-10-10-10-10-10-9-9-10-10-12-

A-|-7-7-7-7-7-7-7-7-3-3-3-3-3-3-3-3--8--8--8--8--8--8--8--8-7-7--8--8-10-

E-|-5-5-5-5-5-5-5-5------------------------------------------------------

e-|----------------------------------------------------------------------

B-|----------------------------------------------------------------------

G-|----------------------------------------------------------------------

D-|-----------------5-5-5-5-5-5-5-5-10-10-10-10-10-10-10-10-9-9-10-10-12-

A-|-7-7-7-7-7-7-7-7-3-3-3-3-3-3-3-3--8--8--8--8--8--8--8--8-7-7--8--8-10-

E-|-5-5-5-5-5-5-5-5------------------------------------------------------

e-|----------------------------------------------------------------------

B-|----------------------------------------------------------------------

G-|----------------------------------------------------------------------

D-|-12-12-12-12-12-12-12-10-10-10-10-10-10-10-10-7-7-7-7-7-7-7-7-7-7-7-7-

A-|-10-10-10-10-10-10-10--8--8--8--8--8--8--8--8-5-5-5-5-5-5-5-5-5-5-5-5-

E-|----------------------------------------------------------------------

e-|--------------------------------------------------------------

B-|--------------------------------------------------------------

G-|--------------------------------------------------------------

D-|-14-14-14-14-10-10-10-10-14-14-14-14-10-10-10-10-14-14-14-14--

A-|-12-12-12-12--8--8--8--8-12-12-12-12--8--8--8--8-12-12-12-12--

E-|--------------------------------------------------------------

e-|----------------|

B-|----------------|

G-|----------------|

D-|-10-10-10-10-14-|

A-|--8--8--8--8-12-|

E-|----------------|

Get this song at:  amazon.com sheetmusicplus.com

Share your thoughts

0 Comments found