No Use for a Name

Old Whats His Name Tabs



More from No Use for a Name

No Use for a Name Tabs
No Use for a Name Chords
No Use for a Name Bass
No Use for a Name Lyrics

-------------------------------------------------------------------------------------------------------------------
                  OLD WHATS HIS NAME - No Use For A Name
-------------------------------------------------------------------------------------------------------------------

By: Jeff Munt

e-|-----------------------------------------------------------------
B-|-----------------------------------------------------------------
G-|-----------------------------------------------------------------
D-|-9-9-9-9-7-7-7-7-5-5-5-5-7-7-7-7-4-4-4-4-5-5-5-5-----------------
A-|-7-7-7-7-5-5-5-5-3-3-3-3-5-5-5-5-2-2-2-2-3-3-3-3-2-2-2-2-2-2-2-2-
E-|-------------------------------------------------0-0-0-0-0-0-0-0-

e-|---------------------------------------------------------------------|
B-|---------------------------------------------------------------------|
G-|---------------------------------------------------------------------|
D-|-9-9-9-9-7-7-7-7-5-5-5-5-7-7-7-7-4-4-4-4-5-5-5-5-9-9-9-9-9-9-9-9-----|
A-|-7-7-7-7-5-5-5-5-3-3-3-3-5-5-5-5-2-2-2-2-3-3-3-3-7-7-7-7-7-7-7-7-7-7-|
E-|-----------------------------------------------------------------5-5-|

e-|-----------------------------------------------------------------
B-|-----------------------------------------------------------------
G-|-----------------------------------------------------------------
D-|-----------------------------------------------------------------
A-|-x-9-x-9-x-9-x-9-x-9-x-9-x-9-7-7-x-5-x-5-x-5-x-5-x-5-x-5-x-5-7-7-
E-|-x-7-x-7-x-7-x-7-x-7-x-7-x-7-5-5-x-3-x-3-x-3-x-3-x-3-x-3-x-3-5-5-

e-|-------------------------------------------------------------------------|
B-|-------------------------------------------------------------------------|
G-|-------------------------------------------------------------------------|
D-|-------------------------------------------------------------------------|
A-|-x-9-x-9-x-9-x-9-x-9-x-9-x-9-7-7-x-5-x-5-x-5-x-5-x-5-x-5-x-5-7-7-7-7-7-7-|
E-|-x-7-x-7-x-7-x-7-x-7-x-7-x-7-5-5-x-3-x-3-x-3-x-3-x-3-x-3-x-3-5-5-5-5-5-5-|

e-|-----------------------------------------------------------------|
B-|----------------------------------------------------------------------|
G-|----------------------------------------------------------------------|
D-|-9-9-9-9---------7-7-7-7---------9-9-9-9---------7-7-7-7---9-9-9-9-9--|
A-|-7-7-7-7-5-5-5-5-5-5-5-5-7-7-7-7-7-7-7-7-5-5-5-5-5-5-5-5-7-7-7-7-7-7--|
E-|---------3-3-3-3---------5-5-5-5---------3-3-3-3---------5------------|

e-|-----------------------|-------------------------------------------------
B-|-----------------------|-------------------------------------------------
G-|-----------------------|-------------------------------------------------
D-|-----------------------|-5-5-5-5-5-5-5-5-7-7-7-7-7-7-7-7-----------------
A-|-4-4-4-4-7-6-2-2-2-2-2-|-3-3-3-3-3-3-3-3-5-5-5-5-5-5-5-5-7-7-7-7-7-7-7-7-
E-|-2-2-2-2-5-4-0-0-0-0-0-|---------------------------------5-5-5-5-5-5-5-5-

e-|-----------------------------------------|
B-|-----------------------------------------|
G-|-----------------------------------------|
D-|-9-9-9-9-9-9-9-9-5-5-5-5-5-5-5-5-7-7-7-7-|
A-|-7-7-7-7-7-7-7-7-3-3-3-3-3-3-3-3-5-5-5-5-|
E-|-----------------------------------------|

e-|-----------------------------------------------------------------------
B-|---12p10----------------------------------------8-10-10-12-12-10h12p10-
G-|-9-------12-9-------------------------------7-9------------------------
D-|--------------9-7-9-7---7---7---5-7-9---9-7----------------------------
A-|----------------------9---9---7-------7--------------------------------
E-|-----------------------------------------------------------------------

e-|-----------|
B-|-----------|
G-|-9--10p9---|
D-|---------9-|
A-|-----------|
E-|-----------|

e-|-----------------------------------------------------------------
B-|-----------------------------------------------------------------
G-|-----------------------------------------------------------------
D-|-----------------------------------------------------------------
A-|-x-9-x-9-x-9-x-9-x-9-x-9-x-9-7-7-x-5-x-5-x-5-x-5-x-5-x-5-x-5-7-7-
E-|-x-7-x-7-x-7-x-7-x-7-x-7-x-7-5-5-x-3-x-3-x-3-x-3-x-3-x-3-x-3-5-5-

e-|-------------------------------------------------------------------------|
B-|-------------------------------------------------------------------------|
G-|-------------------------------------------------------------------------|
D-|-------------------------------------------------------------------------|
A-|-x-9-x-9-x-9-x-9-x-9-x-9-x-9-7-7-x-5-x-5-x-5-x-5-x-5-x-5-x-5-7-7-7-7-7-7-|
E-|-x-7-x-7-x-7-x-7-x-7-x-7-x-7-5-5-x-3-x-3-x-3-x-3-x-3-x-3-x-3-5-5-5-5-5-5-|

e-|-----------------------------------------------------------------|
B-|----------------------------------------------------------------------|
G-|----------------------------------------------------------------------|
D-|-9-9-9-9---------7-7-7-7---------9-9-9-9---------7-7-7-7---9-9-9-9-9--|
A-|-7-7-7-7-5-5-5-5-5-5-5-5-7-7-7-7-7-7-7-7-5-5-5-5-5-5-5-5-7-7-7-7-7-7--|
E-|---------3-3-3-3---------5-5-5-5---------3-3-3-3---------5------------|

e-|-----------------------|-------------------------------------------------
B-|-----------------------|-------------------------------------------------
G-|-----------------------|-------------------------------------------------
D-|-----------------------|-5-5-5-5-5-5-5-5-7-7-7-7-7-7-7-7-----------------
A-|-4-4-4-4-7-6-2-2-2-2-2-|-3-3-3-3-3-3-3-3-5-5-5-5-5-5-5-5-7-7-7-7-7-7-7-7-
E-|-2-2-2-2-5-4-0-0-0-0-0-|---------------------------------5-5-5-5-5-5-5-5-

e-|-----------------------------------------|
B-|-----------------------------------------|
G-|-----------------------------------------|
D-|-9-9-9-9-9-9-9-9-5-5-5-5-5-5-5-5-7-7-7-7-|
A-|-7-7-7-7-7-7-7-7-3-3-3-3-3-3-3-3-5-5-5-5-|
E-|-----------------------------------------|

e-|---------------------------------------------------------------------12-|
B-|---------------------8---12-10----12-10----10-8---10-8---12-10-12-10----|
G-|-------------7---7-9---9-------11-------11------9------9----------------|
D-|---------7-9---9--------------------------------------------------------|
A-|-9-7-9-7----------------------------------------------------------------|
E-|------------------------------------------------------------------------|

e-|-----------------------------------------------------------------
B-|-----------------------------------------------------------------
G-|-----------------------------------------------------------------
D-|-5-5-5-5-5-5-5-5-7-7-7-7-7-7-7-7-----------------9-9-9-9-9-9-9-9-
A-|-3-3-3-3-3-3-3-3-5-5-5-5-5-5-5-5-7-7-7-7-7-7-7-7-7-7-7-7-7-7-7-7-
E-|---------------------------------5-5-5-5-5-5-5-5-----------------

e-|-------------------------|----------------------------------------------|
B-|-------------------------|----------------------------------------------|
G-|-------------------------|----------------------------------------------|
D-|-5-5-5-5-5-5-5-5-7-7-7-7-|-5-6-7-8---------7-8-9-10----------9-9-7-10-9-|
A-|-3-3-3-3-3-3-3-3-5-5-5-5-|-3-4-5-6-4-5-6-7-5-6-7--8-7-8-9-10-7-7-5--8-7-|
E-|-------------------------|---------2-3-4-5----------5-6-7--8------------|

   =====================================================================
Get this song at amazon.com      Ebay     Ringtones Ringtones  


Learn to play: Songwriting, Piano, Harmonica, Guitar

Related No Use for a Name Tabs

Redemption Song tabs
Not You Savior tabs
Crazy Train tabs
Always Carrie tabs
Old Whats His Name tabs
Justified Black Eye Acoustic tabs
Saddest Song tabs
Why Doesn Anybody Like Me tabs
The Daily Grind tabs
Secret tabs
A Post Card Would Be Nice tabs
Divine Let Down tabs
Life Sized Mirror tabs
Death Doesnt Care tabs
It Wont Happen Again tabs
This Is A Rebel Song tabs
Armless Sk8er tabs
Six Degrees From Misty tabs
Feeding The Fire tabs
Soulmate tabs


Guitar Tabs









All tabs are property and copyright of their owners. All tabs provided for educational purposes only. Privacy Policy, DMCA