No Use for a Name

Death Doesnt Care Tabs



More from No Use for a Name

No Use for a Name Tabs
No Use for a Name Chords
No Use for a Name Bass
No Use for a Name Lyrics

Song: Death Doesn't Care
Band: NO USE FOR A NAME
Album: Don't Miss The Train
Tabbed: Mikko Lehto (sk8punx6@hotmail.com)

INTRO
e|-------------------------------------|
B|-------------------------------------|
G|-9--9--9--7--7--7--7--7--7--5--5--5--|
D|-7--7--7--5--5--5--5--5--5--3--3--3--|
A|-7--7-----5--5-----5--5-----3--3-----|
E|-------------------------------------|

e|-----------------------------------------|
B|-----------------------------------------|
G|-9--9--9--7--7--7--12--12--12--10--10--10|
D|-7--7--7--5--5--5--10--10--10---8---8---8|
A|-7--7-----5--5-----10--10-------8---8----|
E|-----------------------------------------|

These two parts twice,then solo(twice):

e|----------------------------------------------------------------|
B|-------8-6-5-6-8-------8-6-5-6-8-------8-6-5-8-6-5-6-5-3-5-3----|
G|--5-7-5-----------5-7-5-----------5-7-5-------------------------|
D|-7---------------7---------------7------------------------------|
A|----------------------------------------------------------------|
E|----------------------------------------------------------------|

VERSE

e|----------------------------------------|
B|----------------------------------------|  Play this same time as
G|----------------------------------------|  solo and the palm mute.
D|----------------------------------------|
A|-6666-2222-6666-2222-6666-222-44444444--|
E|-4444-0000-4444-0000-4444-000-22222222--|

CHORUS

e|-----------------|--------------------------------|
B|-----------------|--------------------------------|This part twice
G|-----------------|--------------------------------|
D|---------6666666-|-----5---------777--------------|
A|-2222222-4444444-|-777-3-5555555-555-5-333333333--|
E|-0000000---------|-555---3333333-----3-111111111--|

e|------------------|
B|------------------| 
G|------------------|
D|-9-7-5-4-------4--|
A|-7-5-3-2-7-5-4-2--|
E|---------5-3-2----|

Then again verse etc...
Get this song at amazon.com      Ebay     Ringtones Ringtones  


Learn to play: Songwriting, Piano, Harmonica, Guitar

Related No Use for a Name Tabs

Sidewalk tabs
Death Doesnt Care tabs
Best Regards tabs
Friends For Enemies tabs
Life Size Mirror Intro tabs
Undefeated tabs
Hail To The King tabs
Always Carrie tabs
Until Its Gone tabs
Enjoy The Silence tabs
Angela tabs
New York Fairytale tabs
Saddest Song tabs
Straight From The Jacket tabs
Exit tabs
A Post Card Would Be Nice tabs
Thorn in my Side tabs
Life Sized Mirror tabs
Fairytale Of New York tabs
Armless Sk8er tabs


Guitar Tabs









All tabs are property and copyright of their owners. All tabs provided for educational purposes only. Privacy Policy, DMCA