No Use for a Name

No Use for a Name - 51 Days guitar tab

-*-*-*-*-*-*-*-*-*-*-*-*-*-*-*-*-*-*-*-*-*-*-*-*-*-*-*-*-*-*-*-*-*-*-*-

Song: 51 days

Artist: no use for a name

Author: Roy Stevenson (are_you_done@yahoo.com)

Tuning: standard

-*-*-*-*-*-*-*-*-*-*-*-*-*-*-*-*-*-*-*-*-*-*-*-*-*-*-*-*-*-*-*-*-*-*-*-

e-|--------------------------------12^-----------------------------------

B-|----------------12-12^----10-12-------------------------10p0-12-12-12-

G-|-------7-9-12-9--------12-----------11-11-9-11-11-12-12---------------

D-|-9-9-9----------------------------------------------------------------

A-|----------------------------------------------------------------------

E-|----------------------------------------------------------------------

e-|----------------------------------------10-12^~~~-|

B-|-12-10----12-12-12-13-13-12-10----10-12-----------|

G-|-------12----------------------12-----------------|

D-|--------------------------------------------------|

A-|--------------------------------------------------|

E-|--------------------------------------------------|

e-|---------------------------------------------------------|

B-|---------------------------------------------------------|

G-|---------------------------------------------------------|

D-|-7-5-4---7-5-4---7-5-4-----------------------------------|

A-|-5-3-2-2-5-3-2-2-5-3-2-2-5-5-5-5-5-5-5-5-4-4-4-4-4-4-4-4-|

E-|-------0-------0-------0-3-3-3-3-3-3-3-3-2-2-2-2-2-2-2-2-|

e-|---------------------------------------------------------------

B-|---------------------------------------------------------------

G-|---------------------------------------------------------------

D-|---------------------------------5-5-5-5-5-5-5---------7-7-7-7-

A-|-2-2-2-2-2-2-2-2-2-2-2-2-2-2-2-2-3-3-3-3-3-3-3-5-5-5-5-5-5-5-5-

E-|-0-0-0-0-0-0-0-0-0-0-0-0-0-0-0-0---------------3-3-3-3---------

e-|---------------------------------------------------------------|

B-|---------------------------------------------------------------|

G-|---------------------------------------------------------------|

D-|-----------------5-5-5-5-5-5-5-4-4-4-4-4-4-4-4-4-4-4-4-4-4-4-4-|

A-|-2-2-2-2-2-2-2-2-3-3-3-3-3-3-3-2-2-2-2-2-2-2-2-2-2-2-2-2-2-2-2-|

E-|-0-0-0-0-0-0-0-0-----------------------------------------------|

e-|--------------------------------12^-----------------------------------

B-|----------------12-12^----10-12-------------------------10p0-12-12-12-

G-|-------7-9-12-9--------12-----------11-11-9-11-11-12-12---------------

D-|-9-9-9----------------------------------------------------------------

A-|----------------------------------------------------------------------

E-|----------------------------------------------------------------------

e-|----------------------------------------10-12^~~~-|

B-|-12-10----12-12-12-13-13-12-10----10-12-----------|

G-|-------12----------------------12-----------------|

D-|--------------------------------------------------|

A-|--------------------------------------------------|

E-|--------------------------------------------------|

e-|---------------------------------------------------------|

B-|---------------------------------------------------------|

G-|---------------------------------------------------------|

D-|-7-5-4---7-5-4---7-5-4-----------------------------------|

A-|-5-3-2-2-5-3-2-2-5-3-2-2-5-5-5-5-5-5-5-5-4-4-4-4-4-4-4-4-|

E-|-------0-------0-------0-3-3-3-3-3-3-3-3-2-2-2-2-2-2-2-2-|

e-|---------------------------------------------------------------

B-|---------------------------------------------------------------

G-|---------------------------------------------------------------

D-|---------------------------------5-5-5-5-5-5-5---------7-7-7-7-

A-|-2-2-2-2-2-2-2-2-2-2-2-2-2-2-2-2-3-3-3-3-3-3-3-5-5-5-5-5-5-5-5-

E-|-0-0-0-0-0-0-0-0-0-0-0-0-0-0-0-0---------------3-3-3-3---------

e-|---------------------------------------------------------------

B-|---------------------------------------------------------------

G-|---------------------------------------------------------------

D-|-----------------5-5-5-5-5-5-5-7-7-7-7-7-7-7-7-5-5-5-5-5-5-5-5-

A-|-2-2-2-2-2-2-2-2-3-3-3-3-3-3-3-5-5-5-5-5-5-5-5-3-3-3-3-3-3-3-3-

E-|-0-0-0-0-0-0-0-0-----------------------------------------------

e-|-------------------------------------------------------------------|

B-|-------------------------------------------------------------------|

G-|-------------------------------------------------------------------|

D-|-7-7-7-7-7-7-------------------------------------------------------|

A-|-5-5-5-5-5-5-5-5-5-5-5-5-5-5-5-5-5-4-4-4-4-4-4-4-4-4-4-4-4-4-4-4-4-|

E-|-------------3-3-3-3-3-3-3-3-3-3-3-2-2-2-2-2-2-2-2-2-2-2-2-2-2-2-2-|

e-|---------------------------------------------------------------------

B-|---------------------------------------------------------------------

G-|---------------------------------------------------------------------

D-|-------------5-5-5-5-5-5-------------5-5-5-5-5-5-------------5-5-5-5-

A-|-2-2-2-2-2-2-3-3-3-3-3-3-2-2-2-2-2-2-3-3-3-3-3-3-2-2-2-2-2-2-3-3-3-3-

E-|-0-0-0-0-0-0-------------0-0-0-0-0-0-------------0-0-0-0-0-0---------

e-|-------------------------------------|

B-|-------------------------------------|

G-|-------------------------------------|

D-|-5-5-7-7-7-7-7-7-7-7-7-7-7-7-7-7-----|

A-|-3-3-5-5-5-5-5-5-5-5-5-5-5-5-5-5-7-6-|

E-|---------------------------------5-4-|

e-|----------------------------|

B-|----------------------------|

G-|----------------------------|

D-|---7---6------7---6-7-6---6-|

A-|-4-5-7-4-4--4-5-2-4-5-4-7-4-|

E-|-2---5---2--2---0-------5---|

e-|-------------------------------------------------------------------

B-|---------------------------------10----------------9-9-7-9-9-10-10-

G-|-12-11-9-------9-11-11-9----9-11----11-9-11-9-11-9-----------------

D-|---------12-11-----------11----------------------------------------

A-|-------------------------------------------------------------------

E-|-------------------------------------------------------------------

e-|---------------------------------------------------------------------9-9-

B-|-12-11-9-13-13-13-11-11-13-13-14-10-10-12-12-10-10-12-12-10-10-12-12-----

G-|-------------------------------------------------------------------------

D-|-------------------------------------------------------------------------

A-|-------------------------------------------------------------------------

E-|-------------------------------------------------------------------------

=====================================================================

Get this song at:  amazon.com sheetmusicplus.com

Share your thoughts

0 Comments found