No Use for a Name

No Use for a Name - 3 Months Weekend guitar tab

By: PASCAL DE ST-JEAN

I ONLY TABS ONE GUITAR CAUSE I`M VERY VERY LAZY AND I DIDN`T WANT TO

TAB IT FIRST BUT SINCE NO ONE ELSE DID IT.......AND I`TS GONNA BE BASIC ONLY..

FOR PATTERN AND VARIATION REFER TO THE CD AND FOR MISTAKES OR ANYTHING

ELSE E-MAIL AT FIRSTDEGREE@VIDEOTRON.CA

VERSE (IT`S A THURSDAY MORNING....)

e|-----------------------------------------|

B|-----------------------------------------|

G|-99-999----------------------------------|

D|-99-999--77-777--22-222--99-999----------|

A|-77-777--77-777--22-222--99-999----------|

E|---------55-555--00-000--77-777----------|

SECOND PART

e|-----------------------------------------|

B|-----------------------------------------|

G|-66-666----------------------------------|

D|-66-666--99-999--77-777--99-999----------|

A|-44-444--99-999--77-777--99-999----------|

E|---------77-777--55-555--77-777----------|

CHORUS

e|-----------------------------------------------|

B|-----------------------------------------------|

G|-----------------------------------------------|

D|-66-666--77-777--22-222---66-666--77-777--99---|

A|-66-666--77-777--22-222---66-666--77-777--99---|

E|-44-444--55-555--00-000---44-444--55-555--77---|

SOLO (I DON`T HAVE A CLUE BUT IT`S START WITH THIS)

e|--^^--^^--^^--^^------------------------------|

B|--12--12--12--12-12---15-14H15????------------|

G|----------------------------------------------|

D|----------------------------------------------|

A|----------------------------------------------|

E|----------------------------------------------|

WITH THAT AND THE CD YOU SHOULD BE ABLE TO

PLAY THIS SONG...SO LAZY...E-MAILS FOR QUESTIONS.

==================================================================

Get this song at:  amazon.com sheetmusicplus.com

Share your thoughts

0 Comments found