Nirvana

Nirvana - Polly (new Wave) bass tab

Artist: Nirvana

Album: Incesticide

Song Title: Polly (New Wave)

Transcriber: Randy Lott

Tempo: 196 Bpm

Tuning: Standard Bass Tuning

Notes: Super easy song, but some people play it incorrectly.

Here's the accurate method of playing including timing.

[Verses, Intro]

Q E E E Q E E E E Q E E E

G||------------------------|-------------------------|

D||------------------------|--0--0-------------------|

A||------------------------|-----------3----3--3--2--|

E||--0-------0--3--3----3--|-------------------------|

[Choruses]

E E E Q E E E E E E Q E E E

|-------------------------|-------------------------|

|--0--0--0----------------|-------------------------|

|-----------3----3--3--2--|-----------1----1--1--0--|

|-------------------------|--3--3--3----------------|

[Outro]

H E Q E

|----------------------||

|----------------------||

|----------------------||

|--0--------L----------||

Duration Legend

---------------

W - whole

H - half

Q - quarter

E - 8th

S - 16th

T - 32nd

X - 64th

. - note dotted

|-n-| - n-tuplets

Tablature Legend

----------------

L - tied note

Get this song at:  amazon.com sheetmusicplus.com

Share your thoughts

0 Comments found