Nirvana

Nirvana - About A Girl bass tab

About a Girl

by Nirvana

from the album Bleach

|------------------------------------------------

|------------------------------------------------

|------------------------------------------------

|---0-0-0-3-3-3-0-0-0-3-3-3-3--------------------

|------------------------------------------------

|------------------------------------------------

|-4-4-------------------4-4----------------------

|------4-4-2-2-2-2-2-0------4-4-2-2-2-2-2-0------

|------------------------------------------------

|------------------------------------------------

|-----------0-0-3--------------------------------

|--0-0-0-0---------------------------------------

Tab by Dave Miller ~ dwm3@po.cwru.edu

Get this song at:  amazon.com sheetmusicplus.com

Share your thoughts

0 Comments found