Nirvana

Stay Away(corrected) Bass Tabs



More from Nirvana

Nirvana Tabs
Nirvana Chords
Nirvana Bass
Nirvana Lyrics




Main riff- X4 MAIN RIFF:
G----------------------------
D----------------------------
A--5-5--7--------8-8---0-----
E---------7-7--7-----8---7-8-

CHORUS:
G---------------------------------
D---------------------------------
A--5-5--7---5-6-7-8-8-8---8-7---5-
E---------7-------------8-----8---

BRIDGE:
G-----------------------------------------------------
D------------3--------------------------4-------------
A--5-5-5-3-5---5-4-3--------------4-------------4-4-4-
E--------------------5-4-0--2-2-2---2-2---2-2-2-------

G-----------------------------------------------------
D------------3---3h5-5-3--------------4-4-4-4-4-4-4-4-
A--5-5-5-3-5---5---------0--------4-------------------
E---------------------------2-2-2---2-----------------

ENDING: "God is gay..."
G--------------------------------------------------------------------
D---------------------------------------------------------------------
A5555555555555554444444333333332222222111111-------------------------
E-------------------------------------------555554444333322221111000-0-

E0-0-0-0H--
Order:
Main riff- x12
Chorus- x4
Bridge
Chorus- x4
Main riff- x4
Chorus- x4
Bridge
Chorus- x4
Main riff- X10
Ending



Get this song at amazon.com      Ebay     Ringtones Ringtones  


Learn to play: Songwriting, Piano, Harmonica, Guitar
More Nirvana lyrics available at Muzikum

Related Nirvana Bass Tabs

Sifting bass
Curmudgeon bass
Marijuana bass
Polly (new Wave) bass
Dumb bass
The Eagle Has Landed bass
Tourette Bass Tab bass
In His Hands bass
Bleach Album bass
Something In The Way (live) bass
Swap Meet bass
Where Did You Sleep Last Night Unplugged bass
Lounge Act bass
Rape Me (live) bass
Don't Want It All bass
Smells Like Teen Spirit (nirvana Boxset Dvd) bass
Dumb(correct) bass
BLEW bass
Stay Away(corrected) bass
Pennyroyal Tea bass


Guitar Tabs









All tabs are property and copyright of their owners. All tabs provided for educational purposes only. Privacy Policy, DMCA