Nirvana

Lithium (muddy Banks Of Wiskah) Bass Tabs



More from Nirvana

Nirvana Tabs
Nirvana Chords
Nirvana Bass
Nirvana Lyrics




this version is played standard and their is a intro part i left
out but it doesnt really matter
---------------------------------------------------
---------------7-7-7------------------------------
----------4--4/-----0-3--3-3--5-5-0-2--2-2--5-5-0-
-0--0-4--4-----------------------------------------


---------------------------------------
-------------------5--5/7-7-----------
-7--7-6--6-4--4-------------2-2/5-5-5-5
---------------5--5--------------------

---------------------------------------------------
-------------------------5h7-7-7--5-5--------------
-------3--3-3----3-3--5h7----------7-7-5-3-0-3-0-3-
-5--5-5-------5-5----------------------------------

---------------------------------------------------------------------------
-----------------------5h7-7-7--5-5----------------------------------------
------3--3-3---3-3--5h7----------7-7-5-3-0-3-0-3/5-5-5-5-5-5-52-2-2-2-2---
5--5-5------5-5---------------------------------------------------------0-3 add another "0" for the end

------------------------------------------
--------------------5--5/7-7--------------
-7--7-6--6-4--4-------------0-2-2/5-5-5-5-
---------------5-3-3----------------------

---------------------------------------------------
--------------------5-5-7-5--5-5-7-----------------
-7--7-6--6-4--4--------------------0-2-2-2-5-5-5-5-
---------------5-3-3-------------------------------



Get this song at amazon.com      Ebay     Ringtones Ringtones  


Learn to play: Songwriting, Piano, Harmonica, Guitar
More Nirvana lyrics available at Muzikum

Related Nirvana Bass Tabs

Oh The Guilt bass
Smells Like Teen Spirit(correct) bass
Spank Thru bass
Downer bass
My Sharona bass
Dive (110% Correct) bass
Mollys Lips bass
In His Room bass
Lounge Act (live) bass
Mrs Butterworth bass
Cocaine girl bass
Stay Away (real Easy) bass
Imodium(breed-muddy Banks Of Wiskah) bass
Where Did You Sleep Last Night Unplugged bass
Come Us Tou Are 100% bass
Stay Away (correct) bass
Lounge Act Original bass
Polly Unplugged bass
Milk It bass
Tourette's bass


Guitar Tabs









All tabs are property and copyright of their owners. All tabs provided for educational purposes only. Privacy Policy, DMCA