Nirvana

Floyyd The Barber Tabs



More from Nirvana

Nirvana Tabs
Nirvana Chords
Nirvana Bass
Nirvana Lyrics




This is also a really easy song. I think that this is my fifth nirvana
entry and i know that this one for sure is 100% right!

Regular tuning:

Intro

---------------------
---------------------
---------------------(repeat as necessary)
--33-22-33-22-------
--33-22-33-22-------
--11-00-11-00-------

Then play it agian but there is singing here

---------------------
---------------------
---------------------Repeat until verse is complete
--33-22-33-22-------
--33-22-33-22-------
--11-00-11-00-------

Chorus

---------------
---------------
---------------
-55----44------
-33-66-22--55-
----44-----33--

Verse 2

---------------------
---------------------
---------------------Repeat until verse is complete
--33-22-33-22-------
--33-22-33-22-------
--11-00-11-00-------

Chorus

---------------
---------------
---------------
-55----44------
-33-66-22--55-
----44-----33--


Then the solo (very easy by the way)

-------------------------------------
-------------------------------------
-------------------------------------x3
-------------------------------------
-33-------0-1-3-3~-1~-0-1-3---------
-11-0-1-3----------------------------

Then on the fourth time play this

-------------------------------------
-------------------------------------
----------------------0-1-3----------
----------------0-1-3----------------
-33-------0-1-3----------------------
-11-0-1-3----------------------------

Then play the verse one last time:

---------------------
---------------------
---------------------
--33-22-33-22-------
--33-22-33-22-------
--11-00-11-00-------

And thats all, lately i have been focusing on making a correct
tab for all my favourite Nirvana songs and with this great tab
im almost to that point :)



Get this song at amazon.com      Ebay     Ringtones Ringtones  


Learn to play: Songwriting, Piano, Harmonica, Guitar
More Nirvana lyrics available at Muzikum

Related Nirvana Tabs

Dive tabs
Complete Songbook tabs
Oh The Guilt tabs
Whole Bleach Album tabs
Dumb Acoustic tabs
Litium tabs
Greatest Hits tabs
Jealousy tabs
Blossom tabs
More Than A Feeling tabs
Paper Cuts tabs
From The Muddy Banks Of The Wishkah tabs
Token Eastern Song(perfect) tabs
Heart Shaped Box (full And Correct) tabs
About A Girl Solo tabs
You Got No Right tabs
Floyd The Barber tabs
Heart-shaped Box tabs
D tabs
Swap Meat tabs


Guitar Tabs









All tabs are property and copyright of their owners. All tabs provided for educational purposes only. Privacy Policy, DMCA