Nightwish

Nightwish - Wishmaster guitar tab

NIGHTWISH-"Wishmaster"

From the album "Wishmaster"

Written by Tuomas Holopainen

Added To Ultimate-Guitar.com by Mikhailo (mikhailo_@tut.by)

Chorus 1

e:--------------------------------------------------------|

B:--------------------------------------------------------|

G:-5----3-3--5------3-3--5----3-3--5------3-3-------------|

D:-5-3--3-3--5-3--6-3-3--5-3--3-3--5-3--6-3-3-------------|

A:-3-3--1-1--3-3--6-1-1--3-3--1-1--3-3--6-1-1-------------|

E:---1---------1--4--------1---------1--4-----------------|

Chorus 2

e:--------------------------------------------------------|

B:--------------------------------------------------------|

G:-----------6-------------8---------------------8--------|

D:-----------6-------------8-------------6-6-6---8--------|

A:-3-------3-4---3-------3-6---3-------3-4-4-4-6-6--------|

E:-1-1-1-1-1-----1-1-1-1-1-----1-1-1-1-1-------4----------|

p.m. . . . . . . . . . . . .

e:--------------------------------------------------------|

B:--------------------------------------------------------|

G:-----------6-----------8-----------------------8--------|

D:-----------6-----------8-3-------------6-6-6---8--------|

A:-3-------3-4---3-------6-3---3-------3-4-4-4-6-6--------|

E:-1-1-1-1-1-----1-1-1-1---1---1-1-1-1-1-------4----------|

p.m. . . . . . . . . . . . .

Verse 1 (play it 3 times)

e:--------------------------------------------------------|

B:--------------------------------------------------------|

G:-------------------------------------3------------------|

D:-5-----5-----6-----3-6-3-5-----5-------6-3-5------------|

A:---3-3---3-3---3-3---------3-3---3-3--------------------|

E:--------------------------------------------------------|

p.m. . . . . . . . . . . . . . . . . . . . .

e:--------------------------------------------------------|

B:--------------------------------------------------------|

G:--------------------------------------------------------|

D:-5-----5-----6-----3-6-3-5-----5-----6-6-8--------------|

A:---3-3---3-3---3-3---------3-3---3-3-4-4-6--------------|

E:--------------------------------------------------------|

p.m. . . . . . . . . . . . . . . . . . . .

Verse 2

e:------------------------------------------------------------------|

B:------------------------------------------------------------------|

G:------------------------------8-----------------------------8-----|

D:----------------------------6-8-----------------------------8-----|

A:-3--------3--------3--------6-6--3--------3--------3--------6-----|

E:-1-1-1-1--1-1-1-1--1-1-1-1--4----1-1-1-1--1-1-1-1--1-1-1-1--------|

p.m. . . . . . . . . . . . . . . . . . . . . . . .

e:------------------------------------------------------------------|

B:------------------------------------------------------------------|

G:------------------------------8-------------------------------8---|

D:----------------------------6-8-----------------------------8-8---|

A:-3--------3--------3--------6-6--3--------3--------3--------8-6---|

E:-1-1-1-1--1-1-1-1--1-1-1-1--4----1-1-1-1--1-1-1-1--1-1-1-1--6-----|

p.m. . . . . . . . . . . . . . . . . . . . . . . .

e:------------------------------------------------------------------|

B:-----------------------------------------------------4/6~~--------|

G:--------------8--5-----5-----6-----3-6-3-5-----5------------------|

D:------------6-8----3-3---3-3---3-3---------3-3---3-3--------------|

A:-3----------6-6---------------------------------------------------|

E:-1-1-1-1...-4-----------------------------------------------------|

p.m. . . . . . . . . . . . . . . . . . . . . .

Between parenthesis = keyboard arranged for guitar

e:------------------------------------------------------------------|

B:------------------------------------------------------------------|

G:--------------8---------------------------------------------------|

D:------------6-8---------------(1----)-----------------------------|

A:-3----------6-6--3--------8-6-(1-4-3)-6-----8-4-------------------|

E:-1-1-1-1...-4----1-1-1-1--6-4-(--2-1)-4-4-4-6-2-------------------|

p.m. . . . . . .

Chorus 1

Verse 1 (play the riff 3 times)

Verse 2

Chorus 1

Chorus 2

e:----------------|

B:----------------|

G:----------------|

D:-3--------------|

A:-3--(let ring)--|

E:-1--------------|

Guitar solo 1

e:------------------------------------------------------------------------------|

B:-----------6-6-6---------------6-6-6---------------6-6-6---6-8-8-8-6---6------|

G:-8-8-8-7-8-------8-7-8-8-8-7-8-------8-7-8-8-8-7-8-------8-----------8---8-7-5|

D:------------------------------------------------------------------------------|

A:------------------------------------------------------------------------------|

E:-----------------------------------------------------------------2 TIMES------|

e:------------------------------------------------------------------------------|

B:----------------11-11-11-------11-13-13-13-14-16-14-13-11---------------------|

G:-13-13-13-12-13----------13...----------------------------13-12---------------|

D:------------------------------------------------------------------------------|

A:------------------------------------------------------------------------------|

E:-----------------------------------------------------------------2 TIMES------|

Rhythm under guitar solo 1

e:------------------------------------------------------------------------|

B:--------------------------------------------------------2 TIMES---------|

G:------------------------------------------------------------------------|

D:-5-----5-----5-----5-----------------------6---8------------------------|

A:-3-3-3-3-3-3-3-3-3-3-3-3-6-----6-----5-----6---8------------------------|

E:-------------------------4-4-4-4-4-4-3-3-3-4---6------------------------|

p.m. . . . . . . . . . . . . . . . . . .

e:------------------------------------------------------------------------|

B:------------------------------------------------------------------------|

G:-------------8--6--5--------------8-------------------------------------|

D:-3-----6-----8--6--5--3-----6-----8-------------------------------------|

A:-3-----6-----6--4--3--3-----6-----6-------------------------------------|

E:-1-----4--------------1-----4-------------------------------------------|

e:------------------------------------------------------------------------|

B:--------------------------------------------------------2 TIMES---------|

G:------------------------------------------------------------------------|

D:-5-----5-----5-----5-----------------------6---8------------------------|

A:-3-3-3-3-3-3-3-3-3-3-3-3-6-----6-----5-----6---8------------------------|

E:-------------------------4-4-4-4-4-4-3-3-3-4---6------------------------|

p.m. . . . . . . . . . . . . . . . . . .

Tarja sings

e:------------------------------------------------------------------------|

B:------------------------------------------------------------------------|

G:-------5-----6-----3-----------5-----6-----3----------------------------|

D:-3-----5-----6-----3-----3-----5-----6-----3----------------------------|

A:-3-----3-----4-----1-----3-----3-----4-----1----------------------------|

E:-1-----------------------1----------------------------------------------|

Guitar solo 2

e:------------------------------------------------------------------------|

B:-6-5*-------------4/6-6-6/8-8-8/9-9-9/11--11----------------------------|

G:------6-5-5p6h5-5-------------------------------------------------------|

D:------------------------------------------------------------------------|

A:------------------------------------------------------------------------|

E:------------------------------------------------------------------------|

e:------------------------------------------------------------------------|

B:------------------------------------------------------------------------|

G:------------------------------------------------------------------------|

D:---------------8----8-10-------8----8-10-------8----8-10-8-10-11--------|

A:-8-10-11-10-11---11------10-11---11------10-11---11---------------------|

E:------------------------------------------------------------------------|

p.m. . . . . . . . . . . . . . . . . . . . . . . . . . . . . . .

e:-------------------------------------|

B:-------------------------------------|

G:-------------------------------------|

D:-10-11-13-8-10-11-10-11-13-8-10-11---|

A:-------------------------------------|

E:-------------------------------------|

p.m. . . . . . . . . . . . . . . .

e:----------15--------------------------16~-------------------------------|

B:------------------------------------------------------------------------|

G:----------------------------10-12~--------12-12-10---10-8-----8~--------|

D:-10-11-13----10-11-13-11-13-------------------------------10------------|

A:------------------------------------------------------------------------|

E:------------------------------------------------------------------------|

Rhythm under guitar solo 2

e:--------------------------------------------------------|

B:--------------------------------------------------------|

G:--------------------------------------------------------|

D:-5-----5-----6-----3-6-3-5-----5-----6-6-8--------------|

A:---3-3---3-3---3-3---------3-3---3-3-4-4-6--------------|

E:--------------------------------------------------------|

p.m. . . . . . . . . . . . . . . . . . . .

e:-------------------------------------------------------------------|

B:-------------------------------------------------------------------|

G:-------------8------------8--------------8--------------8----------|

D:-----------6-8------------8------------6-8------------8-8----------|

A:-3---------6-6--3---------6- 3---------6-6--3---------8-6----------|

E:-1-1-1-1-1-4----1-1-1-1-1----1-1-1-1-1-4----1-1-1-1-1-6------------|

p.m. . . . . . . . . . . . . . . . . .

* = artificial harmonic

e:-----------------------------------------------------------------------------|

B:-----------------------------------------------------------------------------|

G:-------------8------------8--------------8-----------------------------------|

D:-----------8-8------------8------------6-8-----------------------------------|

A:-3---------6-6--3---------6--3---------6-6--3---------8-6-8*-7*----6-----8-4-|

E:-1-1-1-1-1-4----1-1-1-1-1----1-1-1-1-1-4----1-1-1-1-1-6-4-------9*-4-4-4-6-2-|

p.m. . . . . . . . . . . . . . . . . .

Play the chorus 1 then two times the chorus 2.

Get this song at:  amazon.com sheetmusicplus.com

Share your thoughts

0 Comments found