Nightwish

Nightwish - Wishmaster bass tab

G||--------------------|--------------------|--------------------|

D||--------------------|--------------------|--------------------|

A||------3----3--------|----------1----1----|------3----3--------|

E||--------------------|--------------------|--------------------|

---------------------|--------------------|--------------------|

-----------1---------|--------------------|--------------------|

----------------1----|------3----3--------|----------1----1----|

--4------------------|--------------------|--------------------|

--------------------|---------------------|----------------------------------|

--------------------|-----------1---------|----------------------------------|

------3----3--------|----------------1----|-----------------------------4----|

--------------------|--4------------------|--1--1--1--1--1--1--1--1--1-------|

----------------------------------|----------------------------------|

-----------------------------1----|----------------------------------|

----------------------------------|-----------------------------4----|

--1--1--1--1--1--1--1--1--1-------|--1--1--1--1--1--1--1--1--1-------|

--------------------|----------------------------------|

---------------1----|----------------------------------|

----------1---------|-----------------------------1----|

--------------------|--1--1--1--1--1--1--1--1--1-------|

------------------------------|----------------------------------|

--------------------1----3----|----------------------------------|

------------------------------|-----------------------------4----|

--1--1--1--1--1--1------------|--1--1--1--1--1--1--1--1--1-------|

----------------------|------------------|--------------------------|

----------------------|------------------|----------1---------------|

--4----4----1----3----|------------------|---------------4----3--1--|

----------------------|------------------|--------------------------|

------------------|-------------------------|

------------------|-------------------------|

------------------|----------4----4----6----|

------------------|-------------------------|

------------------------------------|-----------------------------------|

------------------------------------|-------------------1---------------|

--3----3--3--3--3--3----3--3--3--3--|--3----3--3--3--3-------4----3--1--|

------------------------------------|-----------------------------------|

------------------------------------|----------------------------------|

------------------------------------|----------------------------------|

--3----3--3--3--3--3----3--3--3--3--|--3----3--3--3--3--4----4----6----|

------------------------------------|----------------------------------|

------------------------------------|-----------------------------------|

------------------------------------|-------------------1---------------|

--3----3--3--3--3--3----3--3--3--3--|--3----3--3--3--3-------4----3--1--|

------------------------------------|-----------------------------------|

------------------------------------|----------------------------------|

------------------------------------|----------------------------------|

--3----3--3--3--3--3----3--3--3--3--|--3----3--3--3--3--4----4----6----|

------------------------------------|----------------------------------|

------------------------------------|-----------------------------|

------------------------------------|-----------------------------|

------------------------------------|------------------------1----|

--1----1--1--1--1--1----1--1--1--1--|--1----1--1--1--1--4---------|

------------------------------------|----------------------------------|

------------------------------------|-------------------1----1----1----|

------------------------------------|----------------------------------|

--1----1--1--1--1--1----1--1--1--1--|--1----1--1--1--1-----------------|

------------------------------------|-----------------------------|

------------------------------------|-----------------------------|

------------------------------------|------------------------1----|

--1----1--1--1--1--1----1--1--1--1--|--1----1--1--1--1--4---------|

-------------------|--------------------|------------------------------------|

-------------------|-----------1--------|------------------------------------|

-------------------|--1-----------------|------------------------------------|

--0----------------|--------------------|--1----1--1--1--1--1----1--1--1--1--|

-----------------------------|------------------------------------|

-----------------------------|------------------------------------|

------------------------1----|------------------------------------|

--1----1--1--1--1--4---------|--1----1--1--1--1--1----1--1--1--1--|

-----------------------------|------------------------------------|

-----------------------------|------------------------------------|

------------------------1----|------------------------------------|

--1----1--1--1--1--4---------|--1----1--1--1--1--1----1--1--1--1--|

-----------------------------|------------------------|----------------------|

-----------------------------|------------------------|----------------------|

------------------------1----|------------------------|--1---------1---------|

--1----1--1--1--1--4---------|--1------------1--1--1--|-------2---------2----|

--------------------------|----------------------------------|

--------------------------|--------------------3-------------|

----------------1---------|--3--3--3--3--3--3-------3--3--3--|

--1----4--4--4-------2----|----------------------------------|

------------------------------|----------------------------------|

------------------------------|--------------------3-------------|

--------------------1----1----|--3--3--3--3--3--3-------3--3--3--|

--4--4--4--4--4--4------------|----------------------------------|

------------------------------|----------------------------------|

--------------------1---------|--------------------3-------------|

-------------------------1----|--3--3--3--3--3--3-------3--3--3--|

--4--4--4--4--4--4------------|----------------------------------|

------------------------------|----------------------------------|

------------------------------|--------------------3-------------|

--------------------1----1----|--3--3--3--3--3--3-------3--3--3--|

--4--4--4--4--4--4------------|----------------------------------|

------------------------------|------------------|--------------------------|

--------------------1---------|------------------|----------1---------------|

-------------------------1----|------------------|---------------4----3--1--|

--4--4--4--4--4--4------------|------------------|--------------------------|

------------------|-------------------------|

------------------|-------------------------|

------------------|----------4----4----6----|

------------------|-------------------------|

------------------------------------|-----------------------------------|

------------------------------------|-------------------1---------------|

--3----3--3--3--3--3----3--3--3--3--|--3----3--3--3--3-------4----3--1--|

------------------------------------|-----------------------------------|

------------------------------------|----------------------------------|

------------------------------------|----------------------------------|

--3----3--3--3--3--3----3--3--3--3--|--3----3--3--3--3--4----4----6----|

------------------------------------|----------------------------------|

------------------------------------|-----------------------------------|

------------------------------------|-------------------1---------------|

--3----3--3--3--3--3----3--3--3--3--|--3----3--3--3--3-------4----3--1--|

------------------------------------|-----------------------------------|

------------------------------------|----------------------------------|

------------------------------------|----------------------------------|

--3----3--3--3--3--3----3--3--3--3--|--3----3--3--3--3--4----4----6----|

------------------------------------|----------------------------------|

------------------------------------|-----------------------------|

------------------------------------|-----------------------------|

------------------------------------|------------------------1----|

--1----1--1--1--1--1----1--1--1--1--|--1----1--1--1--1--4---------|

------------------------------------|----------------------------------|

------------------------------------|-------------------1----1----1----|

------------------------------------|----------------------------------|

--1----1--1--1--1--1----1--1--1--1--|--1----1--1--1--1-----------------|

------------------------------------|-----------------------------|

------------------------------------|-----------------------------|

------------------------------------|------------------------1----|

--1----1--1--1--1--1----1--1--1--1--|--1----1--1--1--1--4---------|

-------------------|--------------------|------------------------------------|

-------------------|-----------1--------|------------------------------------|

-------------------|--1-----------------|------------------------------------|

--0----------------|--------------------|--1----1--1--1--1--1----1--1--1--1--|

-----------------------------|------------------------------------|

-----------------------------|------------------------------------|

------------------------1----|------------------------------------|

--1----1--1--1--1--4---------|--1----1--1--1--1--1----1--1--1--1--|

-----------------------------|------------------------------------|

-----------------------------|------------------------------------|

------------------------1----|------------------------------------|

--1----1--1--1--1--4---------|--1----1--1--1--1--1----1--1--1--1--|

-----------------------------|------------------------|----------------------|

-----------------------------|------------------------|----------------------|

------------------------1----|------------------------|--1---------1---------|

--1----1--1--1--1--4---------|--1------------1--1--1--|-------2---------2----|

--------------------------|----------------------------------|

--------------------------|--------------------3-------------|

----------------1---------|--3--3--3--3--3--3-------3--3--3--|

--1----4--4--4-------2----|----------------------------------|

------------------------------|----------------------------------|

------------------------------|--------------------3-------------|

--------------------1----1----|--3--3--3--3--3--3-------3--3--3--|

--4--4--4--4--4--4------------|----------------------------------|

------------------------------|----------------------------------|

--------------------1---------|--------------------3-------------|

-------------------------1----|--3--3--3--3--3--3-------3--3--3--|

--4--4--4--4--4--4------------|----------------------------------|

------------------------------|----------------------------------|

------------------------------|--------------------3-------------|

--------------------1----1----|--3--3--3--3--3--3-------3--3--3--|

--4--4--4--4--4--4------------|----------------------------------|

------------------------------|----------------------------------|

--------------------1---------|----------------------------------|

-------------------------1----|-----------------------------4----|

--4--4--4--4--4--4------------|--1--1--1--1--1--1--1--1--1-------|

----------------------------------|----------------------------------|

-----------------------------1----|----------------------------------|

----------------------------------|-----------------------------4----|

--1--1--1--1--1--1--1--1--1-------|--1--1--1--1--1--1--1--1--1-------|

--------------------|----------------------------------|

---------------1----|----------------------------------|

----------1---------|-----------------------------4----|

--------------------|--1--1--1--1--1--1--1--1--1-------|

------------------------------|----------------------------------|

--------------------1----3----|----------------------------------|

------------------------------|-----------------------------4----|

--1--1--1--1--1--1------------|--1--1--1--1--1--1--1--1--1-------|

----------------------|-------------------|------------------|

----------------------|-------------------|------------------|

--4----4----1----3----|-------------------|------------------|

----------------------|--1----------------|------------------|

------------------|------------------|------------------------------------|

------------------|------------------|------------------------------------|

------------------|------------------|--3----3--3--3--3--3----3--3--3--3--|

------------------|------------------|------------------------------------|

------------------------------------|------------------------------------|

------------------------------------|------------------------------------|

--3----3--3--3--3--3----3--3--3--3--|------------------------------------|

------------------------------------|--4----4--4--4--4--4----4--4--4--4--|

-----------------------------|------------------------------------|

-----------------------------|------------------------------------|

------------------------1----|--3----3--3--3--3--3----3--3--3--3--|

--3----3--3--3--3--4---------|------------------------------------|

------------------------------------|------------------------------------|

------------------------------------|------------------------------------|

--3----3--3--3--3--3----3--3--3--3--|------------------------------------|

------------------------------------|--4----4--4--4--4--4----4--4--4--4--|

-----------------------------|------------------------------------|

-------------------1---------|------------------------------------|

------------------------1----|--1----1--1--1--1--1----1--1--1--1--|

--3----3--3--3--3------------|------------------------------------|

------------------------------------|------------------------------------|

------------------------------------|------------------------------------|

--1----1--1--1--1--1----1--1--1--1--|------------------------------------|

------------------------------------|--4----4--4--4--4--4----4--4--4--4--|

--------------------|------------------------------------|

--1-----------------|------------------------------------|

-----------3--------|------------------------------------|

--------------------|--1----1--1--1--1--1----1--1--1--1--|

------------------------------------|------------------------------------|

------------------------------------|------------------------------------|

------------------------------------|------------------------------------|

--1----1--1--1--1--1----1--1--1--1--|--4----4--4--4--4--4----4--4--4--4--|

--------------------|------------------------------------|

--1-----------------|------------------------------------|

-----------1--------|--3----3--3--3--3--3----3--3--3--3--|

--------------------|------------------------------------|

------------------------------------|------------------------------------|

------------------------------------|------------------------------------|

--3----3--3--3--3--3----3--3--3--3--|------------------------------------|

------------------------------------|--4----4--4--4--4--4----4--4--4--4--|

-----------------------------|------------------------------------|

-----------------------------|------------------------------------|

------------------------1----|--3----3--3--3--3--3----3--3--3--3--|

--3----3--3--3--3--4---------|------------------------------------|

------------------------------------|------------------------------------|

------------------------------------|------------------------------------|

--3----3--3--3--3--3----3--3--3--3--|------------------------------------|

------------------------------------|--4----4--4--4--4--4----4--4--4--4--|

-----------------------------|------------------------------------|

-------------------1---------|------------------------------------|

------------------------1----|------------------------------------|

--3----3--3--3--3------------|--1----1--1--1--1--1----1--1--1--1--|

------------------------------------|------------------------------------|

------------------------------------|------------------------------------|

------------------------------------|--3----3--3--3--3--3----3--3--3--3--|

--1----1--1--1--1--1----1--1--1--1--|------------------------------------|

------------------------------------|------------------------------------|

------------------------------------|------------------------------------|

--3----3--3--3--3--3----3--3--3--3--|--4----4--4--4--4--4----4--4--4--4--|

------------------------------------|------------------------------------|

------------------------------------|------------------------------------|

------------------------------------|------------------------------------|

--4----4--4--4--4--4----4--4--4--4--|--1----1--1--1--1--1----1--1--1--1--|

------------------------------------|------------------------------------|

------------------------------------|------------------------------------|

------------------------------------|------------------------------------|

--1----1--1--1--1--1----1--1--1--1--|------------------------------------|

------------------------------------|--1----1--1--1--1--1----1--1--1--1--|

------------------------------------|------------------------------------|

------------------------------------|------------------------------------|

------------------------------------|--3----3--3--3--3--3----3--3--3--3--|

--1----1--1--1--1--1----1--1--1--1--|------------------------------------|

------------------------------------|------------------------------------|

------------------------------------|------------------------------------|

--3----3--3--3--3--3----3--3--3--3--|--4----4--4--4--4--4----4--4--4--4--|

------------------------------------|------------------------------------|

------------------------------------|------------------------------------|

------------------------------------|------------------------------------|

--4----4--4--4--4--4----4--4--4--4--|--1----1--1--1--1--1----1--1--1--1--|

------------------------------------|------------------------------------|

------------------------------------|------------------|

------------------------------------|------------------|

--1----1--1--1--1--1----1--1--1--1--|------------------|

------------------------------------|------------------|

-------------------------|------------------------------------|

-------------------------|------------------------------------|

----------4----4----6----|------------------------------------|

-------------------------|--1----1--1--1--1--1----1--1--1--1--|

----------------------------|------------------------------------|

----------------------------|------------------------------------|

----------------------------|------------------------------------|

--1----1--1--1--1--4--------|--1----1--1--1--1--1----1--1--1--1--|

----------------------------|------------------------------------|

-------------------1--------|------------------------------------|

----------------------------|------------------------------------|

--1----1--1--1--1-----------|--1----1--1--1--1--1----1--1--1--1--|

----------------------------|------------------------------------|

----------------------------|------------------------------------|

----------------------------|------------------------------------|

--1----1--1--1--1--4--------|--1----1--1--1--1--1----1--1--1--1--|

----------------------------|------------------------------------|

-------------------1--------|------------------------------------|

----------------------------|------------------------------------|

--1----1--1--1--1-----------|--1----1--1--1--1--1----1--1--1--1--|

----------------------------|------------------------------------|

----------------------------|------------------------------------|

----------------------------|------------------------------------|

--1----1--1--1--1--4--------|--1----1--1--1--1--1----1--1--1--1--|

----------------------------|------------------------------------|

-------------------1--------|------------------------------------|

----------------------------|------------------------------------|

--1----1--1--1--1-----------|--1----1--1--1--1--1----1--1--1--1--|

----------------------------|------------------------------------|

----------------------------|------------------------------------|

----------------------------|------------------------------------|

--1----1--1--1--1--4--------|--1----1--1--1--1--1----1--1--1--1--|

----------------------|--------------------------|

----------------------|--------------------------|

--1---------1---------|----------------1---------|

-------2---------2----|--1----4--4--4-------2----|

----------------------------------|------------------------------|

--------------------3-------------|------------------------------|

--3--3--3--3--3--3-------3--3--3--|--------------------1----1----|

----------------------------------|--4--4--4--4--4--4------------|

----------------------------------|------------------------------|

--------------------3-------------|--------------------1---------|

--3--3--3--3--3--3-------3--3--3--|-------------------------1----|

----------------------------------|--4--4--4--4--4--4------------|

----------------------------------|------------------------------|

--------------------3-------------|------------------------------|

--3--3--3--3--3--3-------3--3--3--|--------------------1----1----|

----------------------------------|--4--4--4--4--4--4------------|

----------------------------------|------------------------------|

--------------------3-------------|--------------------1---------|

--3--3--3--3--3--3-------3--3--3--|-------------------------1----|

----------------------------------|--4--4--4--4--4--4------------|

----------------------------------|----------------------------------|

----------------------------------|-----------------------------1----|

-----------------------------4----|----------------------------------|

--1--1--1--1--1--1--1--1--1-------|--1--1--1--1--1--1--1--1--1-------|

----------------------------------|--------------------|

----------------------------------|---------------1----|

-----------------------------4----|----------1---------|

--1--1--1--1--1--1--1--1--1-------|--------------------|

----------------------------------|------------------------------|

----------------------------------|--------------------1----3----|

-----------------------------4----|------------------------------|

--1--1--1--1--1--1--1--1--1-------|--1--1--1--1--1--1------------|

----------------------------------|----------------------|

----------------------------------|----------------------|

-----------------------------4----|--4----4----1----3----|

--1--1--1--1--1--1--1--1--1-------|----------------------|

----------------------------------|----------------------------------|

----------------------------------|-----------------------------1----|

-----------------------------4----|----------------------------------|

--1--1--1--1--1--1--1--1--1-------|--1--1--1--1--1--1--1--1--1-------|

----------------------------------|--------------------|

----------------------------------|---------------1----|

-----------------------------4----|----------1---------|

--1--1--1--1--1--1--1--1--1-------|--------------------|

Get this song at:  amazon.com sheetmusicplus.com

Share your thoughts

0 Comments found