Nightwish

Nightwish - Wanderlust guitar tab

Visit MetalTabs.com for more metal tablature

Date: Sun, 27 Jan 2002

From: "Gary R.Jr."

Subject: tab: Wanderlust by Nightwish

Band: Nightwish

Album: Wishmaster

Song: Wanderlust

Transcribed by: Gary Regent Jr.

Please send all improvements to this transcription to:

grj@freemail.hu

Normal tuning: EADGBE

intro:

GuitarI

e:----------------------------12-13-15-17----------17-----------------|

B:-------------------------15-------------18-17-15--------------------|

G:-14----------------12-14--------------------------------------------|

D:----15-14-12-14-15--------------------------------------------------|

A:--------------------------------------------------------------------|

E:--------------------------------------------------------------------|

e:-20----20----20----20----20----20----20----20-18-17-15--------------|

B:----20----18----17----------20----18----17-------------15-----------|

G:----------------------19----------------------------------15-14-12--|

D:--------------------------------------------------------------------|

A:--------------------------------------------------------------------|

E:--------------------------------------------------------------------|

e:--------------------------------------------------------------------|

B:--------------------------------------------------------------------|

G:----------------------------------------12-------12-----------------|

D:-12-------------------------12-------12-------12----14----11-14-----|

A:----13-12----------12-14-15-------13-------14----------12-----------|

E:----------15-10-15-------------15-----------------------------------|

e:--------------------------------------------------------------------|

B:--------------------------------------------------------------------|

G:-14-----------------------------------------------------------------|

D:----15-14-12--------------------------------------------------------|

A:--------------------------------------------------------------------|

E:--------------------------------------------------------------------|

end of intro:

e:--------------------------------------------------------|

B:-------15~-----15-13~---13------------------------------|

G:-15~-----------------------15-14-12~-----14-------------|

D:--------------------------------------------15-14--12~-|

A:--------------------------------------------------------|

E:--------------------------------------------------------|

GuitarII

e:--------------------------------------------|

B:--------------------------------------------|

G:-7--------------7-------------------------5-|

D:-7---3---5---7--7---3---5---8-7--8--5--3--5-|

A:-5*--3---5---7--5*--3---5---8-7--8--5--3--3-|

E:-----1*--3*--5------1*--3*--6-5--6--3--1----|

verse:

GuitarI,II

e:----------------------------------------------------------------------|

B:----------------------------------------------------------------------|

G:-7--------------------------------------7-----------------------------|

D:-7-----3----5------5--5--5---7-7-7------7-----3-----5-----5-5-5---8-7-|

A:-5-----3----5------5--5--5---7-7-7------5-----3-----5-----5-5-5---8-7-|

E:-------1----3------3--3--3---5-5-5------------1-----3-----3-3-3---6-5-|

e:--------------------------------------------------------------------|

B:----------------------keyboard--------------------------------------|

G:-----8---7----(-7--5-5--7--8-8-8--10-10)---------8---10-------------|

D:-8---8---7----(-7--5-5--7--8-8-8--10-10)-----8---8---10-------------|

A:-8---6---5----(-5*-3-3--5*-6-6-6---8--8)-----8---6---8--------------|

E:-6-------------------------------------------6----------------------|

chorus:

e:----------------------------------------------------------------------|

B:----------------------------------------------------------------------|

G:------5----8---10-------10--------8---5-7-8-10-----10-----------------|

D:-5----5----8---10---8---10----5---8---5-7-8-10--8--10-----------------|

A:-5----3----6---8----8---8-----5---6---3-5-6-8---8--8------------------|

E:-3------------------6---------3-----------------6---------------------|

e:---------------------------------------------------------------------|

B:---------------------------------------------------------------------|

G:-----10---8---7--------5-------10------------------------------------|

D:-5---10---8---7----5---5---8---10------------------------------------|

A:-5---8----6---5----5---3---8---8-------------------------------------|

E:-3-----------------3-------6-----------------------------------------Ы

bridge:

e:---------------------------------------------------------------------------|

B:---------------------------------------------------------------------------|

G:---------------------------------------------------------------7-----------|

D:-5---6-5---6--3--5-----5-5--6-5-5----6--3-----2-2--3--2-2----3-7-----2-2-2-|

A:-5---6-5---6--3--5-...-5-5--6-5-5----6--3-...-2-2--3--2-2----3-5-...-2-2-2-|

E:-3---4-3---4--1--3-----3-3*-4-3 3*---4--1-----0-0*-1--0-0*---1-------0-0-0-|

e:---------------------------------------------------------------------------|

B:---------------------------------------------------------------------------|

G:---------------------------------------------------------------------------|

D:-2-2----5---5--2-2----2-2----5---5/6---2----2-2----5---5--2-2--------------|

A:-2-2----5---5--2-2----2-2----5---5/6---2----2-2----5---5--2-2---7777--4444-|

E:-0-0--0-3-0-3--0-0----0-0--0-3-0-3/4-0-0----0-0--0-3-0-3--0-0--------------|

GuitarII

e:-----------------------|

B:-----------------------|

G:--6------9-------------|

D:--6------9-------------|

A:--4------7-------------|

E:-----------------------|

GuitarI

e:-----------------------|

B:--repeat---------------|

G:-----------14-12-------|

D:-----------------14-15-|

A:-----------------------|

E:-----------------------|

outro:

e:---------------------------------------|

B:---------------------------------------|

G:----11--6--8-----6-----11--6--7--11--7-|

D:-7--11--6--8--8--6--7--11--6--7--11--7-|

A:-7--9---4--6--8--4--7--9---4--5--9---5-|

E:-5------------6-----5------------------|

End.

Get this song at:  amazon.com sheetmusicplus.com

Share your thoughts

0 Comments found