Nightwish

Nightwish - Wanderlust bass tab

G||----------------------------------|----------------------------------|

D||----------------------------------|----------------------------------|

A||--5-5-5-5-5-5-5-5-5-5-5-5-5-5-5-5-|----------------------------------|

E||----------------------------------|--1-1-1-1-1-1-1-1-1-1-1-1-1-1-1-1-|

----------------------------------|----------------------------------|

----------------------------------|----------------------------------|

----------------------------------|------------------0-0-0-0-0-0-0-0-|

--3-3-3-3-3-3-3-3-3-3-3-3-3-3-3-3-|--3-3-3-3-3-3-3-3-----------------|

----------------------------------|----------------------------------|

----------------------------------|----------------------------------|

--5-5-5-5-5-5-5-5-5-5-5-5-5-5-5-5-|----------------------------------|

----------------------------------|--1-1-1-1-1-1-1-1-1-1-1-1-1-1-1-1-|

----------------------------------|----------------------------------|

----------------------------------|----------------------------------|

----------------------------------|------------------1-1-1-1-0-0-0-0-|

--3-3-3-3-3-3-3-3-3-3-3-3-3-3-3-3-|--3-3-3-3-3-3-3-3-----------------|

----------------------------------|----------------------------------|

----------------------------------|----------------------------------|

--1-1-1-1-1-1-1-1-1-1-1-1-1-1-1-1-|----------------------------------|

----------------------------------|--3-3-3-3-3-3-3-3-3-3-3-3-3-3-3-3-|

----------------------------------|----------------------------------|

----------------------------------|----------------------------------|

----------------------------------|--3-3-3-3-3-3-3-3-4-4-4-4-4-4-4-4-|

--1-1-1-1-1-1-1-1-1-1-1-1-1-1-1-1-|----------------------------------|

--------------------------|--------------------------|

--0--0--0--0--0--0--0--0--|--------------------------|

--------------------------|--------------------------|

--------------------------|--1--1--1--1--1--1--1--1--|

--------------------------|--------------------------|

--------------------------|--------------------------|

--------------------------|--------------0--0--0--0--|

--3--3--3--3--3--3--3--3--|--3--3--3--3--------------|

--------------------------|--------------------------|

--0--0--0--0--0--0--0--0--|--------------------------|

--------------------------|--------------------------|

--------------------------|--1--1--1--1--1--1--1--1--|

--------------------------|------------------------|--------------------------|

--------------------------|------------------------|--------------------------|

--------------------------|--------------1----0----|--1--1--1--1--1--1--1--1--|

--3--3--3--3--3--3--3--3--|--3--3--3--3------------|--------------------------|

--------------------------|----------------------------|

--1--1--1--1--1--1--1--1--|--0-0-0--0--0-0--0-0--0--0--|

--------------------------|----------------------------|

--------------------------|----------------------------|

----------------------------|--------------------------|

--0-0-0--0--0-0--0-0--0--0--|--------------------------|

----------------------------|--1--1--1--1--1--1--1--1--|

----------------------------|--------------------------|

--------------------------|----------------------------------|

--1--1--1--1--1--1--1--1--|--3-3-3-3-3-3-3-3-3-3-3-3-3-3-3-3-|

--------------------------|----------------------------------|

--------------------------|----------------------------------|

---------------------------|----------------------------------|

--3-3-3-3-3-3--------------|----------------------------------|

--------------3-0----------|----------------------------------|

------------------1--------|--3-3-3-3-3-3-3-3-3-3-3-3-3-3-3-3-|

----------------------------------|----------------------------------|

----------------------------------|--1-1-1-1-1-1-1-1-----------------|

--3-3-3-3-3-3-3-3-3-3-3-3-3-3-3-3-|----------------------------------|

----------------------------------|------------------1-1-1-1-1-1-1-1-|

----------------------------------|----------------------------------|

----------------------------------|----------------------------------|

--1-1-1-1-1-1-1-1-----------------|----------------------------------|

------------------1-1-1-1-1-1-1-1-|--3-3-3-3-3-3-3-3-3-3-3-3-3-3-3-3-|

----------------------------------|----------------------------------|

--1-1-1-1-1-1-1-1-1-1-1-1-1-1-1-1-|----------0-0-0-0-1-1-1-1-3-3-3-3-|

----------------------------------|--3-3-3-3-------------------------|

----------------------------------|----------------------------------|

----------------------------------|----------------------------------|

----------------------------------|----------------------------------|

--1-1-1-1-1-1-1-1-----------------|----------------------------------|

------------------1-1-1-1-1-1-1-1-|--3-3-3-3-3-3-3-3-1-1-1-1-1-1-1-1-|

----------------------------------|----------------------------------|

--1-1-1-1-1-1-1-1-0-0-0-0-0-0-0-0-|----------------------------------|

----------------------------------|------------------3-3-3-3-3-3-3-3-|

----------------------------------|--3-3-3-3-3-3-3-3-----------------|

----------------------------------|----------------------------------|

----------------------------------|----------------------------------|

--1-1-1-1-1-1-1-1-----------------|--5-5-5-5-5-5-5-5-5-5-5-5-5-5-5-5-|

------------------1-1-1-1-1-1-1-1-|----------------------------------|

----------------------------------|----------------------------------|

----------------------------------|----------------------------------|

----------------------------------|----------------------------------|

--1-1-1-1-1-1-1-1-1-1-1-1-1-1-1-1-|--3-3-3-3-3-3-3-3-3-3-3-3-3-3-3-3-|

----------------------------------|----------------------------------|

----------------------------------|----------------------------------|

------------------0-0-0-0-0-0-0-0-|--5-5-5-5-5-5-5-5-5-5-5-5-5-5-5-5-|

--3-3-3-3-3-3-3-3-----------------|----------------------------------|

----------------------------------|----------------------------------|

----------------------------------|----------------------------------|

----------------------------------|----------------------------------|

--1-1-1-1-1-1-1-1-1-1-1-1-1-1-1-1-|--3-3-3-3-3-3-3-3-3-3-3-3-3-3-3-3-|

----------------------------------|----------------------------------|

----------------------------------|----------------------------------|

------------------1-1-1-1-0-0-0-0-|--1-1-1-1-1-1-1-1-1-1-1-1-1-1-1-1-|

--3-3-3-3-3-3-3-3-----------------|----------------------------------|

----------------------------------|----------------------------------|

----------------------------------|----------------------------------|

----------------------------------|----------------------------------|

--3-3-3-3-3-3-3-3-3-3-3-3-3-3-3-3-|--1-1-1-1-1-1-1-1-1-1-1-1-1-1-1-1-|

----------------------------------|--------------------------|

----------------------------------|--0--0--0--0--0--0--0--0--|

--3-3-3-3-3-3-3-3-4-4-4-4-4-4-4-4-|--------------------------|

----------------------------------|--------------------------|

--------------------------|--------------------------|

--------------------------|--------------------------|

--------------------------|--------------------------|

--1--1--1--1--1--1--1--1--|--3--3--3--3--3--3--3--3--|

--------------------------|--------------------------|

--------------------------|--0--0--0--0--0--0--0--0--|

--------------0--0--0--0--|--------------------------|

--3--3--3--3--------------|--------------------------|

--------------------------|--------------------------|------------------------|

--------------------------|--------------------------|------------------------|

--------------------------|--------------------------|--------------1----0----|

--1--1--1--1--1--1--1--1--|--3--3--3--3--3--3--3--3--|--3--3--3--3------------|

--------------------------|--------------------------|

--------------------------|--1--1--1--1--1--1--1--1--|

--1--1--1--1--1--1--1--1--|--------------------------|

--------------------------|--------------------------|

----------------------------|----------------------------|

--0-0-0--0--0-0--0-0--0--0--|--0-0-0--0--0-0--0-0--0--0--|

----------------------------|----------------------------|

----------------------------|----------------------------|

--------------------------|--------------------------|

--------------------------|--1--1--1--1--1--1--1--1--|

--1--1--1--1--1--1--1--1--|--------------------------|

--------------------------|--------------------------|

----------------------------------|---------------------------|

--3-3-3-3-3-3-3-3-3-3-3-3-3-3-3-3-|--3-3-3-3-3-3--------------|

----------------------------------|--------------3-0----------|

----------------------------------|------------------1--------|

----------------------------------|----------------------------------|

----------------------------------|----------------------------------|

----------------------------------|--3-3-3-3-3-3-3-3-3-3-3-3-3-3-3-3-|

--3-3-3-3-3-3-3-3-3-3-3-3-3-3-3-3-|----------------------------------|

----------------------------------|----------------------------------|

--1-1-1-1-1-1-1-1-----------------|----------------------------------|

----------------------------------|--1-1-1-1-1-1-1-1-----------------|

------------------1-1-1-1-1-1-1-1-|------------------1-1-1-1-1-1-1-1-|

----------------------------------|----------------------------------|

----------------------------------|--1-1-1-1-1-1-1-1-1-1-1-1-1-1-1-1-|

----------------------------------|----------------------------------|

--3-3-3-3-3-3-3-3-3-3-3-3-3-3-3-3-|----------------------------------|

----------------------------------|----------------------------------|

----------0-0-0-0-1-1-1-1-3-3-3-3-|----------------------------------|

--3-3-3-3-------------------------|--1-1-1-1-1-1-1-1-----------------|

----------------------------------|------------------1-1-1-1-1-1-1-1-|

----------------------------------|----------------------------------|

----------------------------------|--1-1-1-1-1-1-1-1-0-0-0-0-0-0-0-0-|

----------------------------------|----------------------------------|

--3-3-3-3-3-3-3-3-1-1-1-1-1-1-1-1-|----------------------------------|

----------------------------------|----------------------------------|

----------------------------------|----------------------------------|

------------------3-3-3-3-3-3-3-3-|--1-1-1-1-1-1-1-1-----------------|

--3-3-3-3-3-3-3-3-----------------|------------------1-1-1-1-1-1-1-1-|

--------------------|---------------------|--------------------|

--------------------|---------------------|--------------------|

--------------------|---------------------|--------------------|

--3--------------3--|--3--------4----1----|--3--------------3--|

---------------------|----------------------|----------------------|

---------------------|----------------------|----------------------|

---------------------|----------------------|----------------------|

--3--------4----1----|--3----3----3----3----|--3----3----4----1----|

----------------------|----------------------|----------------------|

----------------------|----------------------|----------------------|

----------------------|----------------------|----------------------|

--3----3----3----3----|--3----3----4----1----|--0----0----0----0----|

---------------------|----------------------|---------------------|

---------------------|----------------------|---------------------|

---------------------|----------------------|---------------------|

--0----0----1--------|--0----0----0----0----|--0----0----1--------|

------------------|------------------|------------------|------------------|

------------------|------------------|------------------|------------------|

------------------|------------------|------------------|------------------|

------------------|------------------|------------------|------------------|

------------------|------------------------|--------------------------|

------------------|------------------------|--------------------------|

------------------|------------------------|--------------------------|

------------------|------0----0--0--0-1--0-|--1--0--0----0--0--0-1--0-|

-------------------------|----------------------|----------------------|

-------------------------|----------------------|----------------------|

----------------------4--|--4----4----4----4----|--4----4----4----4----|

--1--0--0----0--0--0-----|----------------------|----------------------|

----------------------------------|----------------------------------|

----------------------------------|----------------------------------|

----------------------------------|----------------------------------|

--0-0-0-0-0-0-0-0-0-0-0-0-0-0-0-0-|--0-0-0-0-0-0-0-0-0-0-0-0-0-0-0-0-|

----------------------|----------------------|

----------------------|----------------------|

--4----4----4----4----|--4----4----4----4----|

----------------------|----------------------|

----------------------------------|----------------------------------|

----------------------------------|----------------------------------|

----------------------------------|----------------------------------|

--0-0-0-0-0-0-0-0-0-0-0-0-0-0-0-0-|--0-0-0-0-0-0-0-0-0-0-0-0-0-0-0-0-|

---------------------------|--------------------------|

---------------------------|--------------------------|

---------------------------|--------------------------|

--0-0-0-0-----0--0--0-1--0-|--1--0--0----0--0--0--1-0-|

---------------------------|-------------------------|

---------------------------|-------------------------|

---------------------------|----------------------4--|

--1-1-0--0----0--0--0-1--0-|--1--0--0----0--0--0-----|

---------------------------|--------------------------|

---------------------------|--------------------------|

---------------------------|--------------------------|

--0-0-0-0-----0--0--0-1--0-|--1--0--0----0--0--0--1-0-|

---------------------------|-------------------------|----------------------|

---------------------------|-------------------------|----------------------|

---------------------------|----------------------4--|--4----4----4----4----|

--1-1-0--0----0--0--0-1--0-|--1--0--0----0--0--0-----|----------------------|

----------------------|----------------------------------|

----------------------|----------------------------------|

--4----4----4----4----|----------------------------------|

----------------------|--0-0-0-0-0-0-0-0-0-0-0-0-0-0-0-0-|

----------------------------------|----------------------|

----------------------------------|----------------------|

----------------------------------|--4----4----4----4----|

--0-0-0-0-0-0-0-0-0-0-0-0-0-0-0-0-|----------------------|

----------------------|----------------------------------|

----------------------|----------------------------------|

--4----4----4----4----|----------------------------------|

----------------------|--0-0-0-0-0-0-0-0-0-0-0-0-0-0-0-0-|

----------------------------------|-------------------|-------------------|

----------------------------------|-------------------|-------------------|

----------------------------------|--0----------------|-------------------|

--0-0-0-0-0-0-0-0-0-0-0-0-0-0-0-0-|-------------------|--2----------------|

-------------------|------------------|-------------------|--------------------|

-------------------|------------------|-------------------|--------------------|

--4----------------|------------------|-------------------|--2------------3----|

-------------------|------------------|--0----------------|--------------------|

-------------------|------------------|-------------------|-------------------|

-------------------|------------------|-------------------|-------------------|

--4----------------|------------------|--0----------------|-------------------|

-------------------|------------------|-------------------|--2----------------|

-------------------|------------------|-------------------|-------------------|

-------------------|------------------|--0----------------|-------------------|

--4----------------|------------------|-------------------|-------------------|

-------------------|------------------|-------------------|--2----------------|

-------------------|

-------------------|

-------------------|

--0----------------|

Taken from The BassMasta -- http://www.tabs-database.com

Get this song at:  amazon.com sheetmusicplus.com

Share your thoughts

0 Comments found