Nightwish

Nightwish - Walking In The Air Solo guitar tab

Nightwish

Walking In The Air

e-mail: darklove01@hotmail.com

(words and music by Howard Blake)

Solo (tabbed by Abel...Of Darkness (midgar31@hotmail.com)) :

|--------------------------------------------------------|

|--------------------------------------------------------|

|----19-19-17-17-----------19-19-17-17-14-10-12~-/14-12--|

|-19-------------19-----19-------------------------------|

|--------------------------------------------------------|

|--------------------------------------------------------|

|--------------------------------------------------------|

|--------------------------------------------------------|

|-12-14-/15-14-12~---------------------------------------|

|-------------------12-14-/15-14-12---10-12p10-----------|

|----------------------------------------------12~-------|

|--------------------------------------------------------|

|------------------------------------------------------------|

|----15----17-/18-17p15-13-15p13----------15----17-/18-17h18-|

|-14----14-----------------------14~---14----14--------------|

|------------------------------------------------------------|

|------------------------------------------------------------|

|------------------------------------------------------------|

|------------------------------------------------------------|

|-/20~-/22-20~--20h22-/23-22-20--15h17-/18-17-15-13-15p13----|

|---------------------------------------------------------14-|

|------------------------------------------------------------|

|------------------------------------------------------------|

|------------------------------------------------------------|

Get this song at:  amazon.com sheetmusicplus.com

Share your thoughts

0 Comments found