Nightwish

Nightwish - Walking In The Air guitar tab

Nightwish

Oceanborn

"Walking In The Air"

Normal tuning: EADGBE

1:07

e:--------------|

B:--------------|

G:-7------------|

D:-7------------|

A:-5------------|

E:--------------|

2:45 Solo

e:-------------------------------------------------------------------|

B:-/10--15-15-13-13-10----10-15-15-13-13-10p6-8-h10-8--8-10-11--10-8-|

G:-------------------------------------------------------------------|

D:-------------------------------------------------------------------|

A:-------------------------------------------------------------------|

E:-------------------------------------------------------------------|

e:-------------------------------------------------------|

B:-7-9-10--9-7-5h7p5----------13-15-17-17-15-17p15-15----|

G:-------------------7~----14-------------------------14-|

D:-------------------------------------------------------|

A:-------------------------------------------------------|

E:-------------------------------------------------------|

e:-----------------------15----17--15-----13-15-18-17-15----------------|

B:-----13-15-17-17-15-17----------------------------------13-15-18-17-15|

G:--14------------------------------------------------------------------|

D:----------------------------------------------------------------------|

A:----------------------------------------------------------------------|

E:----------------------------------------------------------------------|

e:---------------------|

B:-13-15-13-10~--------|

G:---------------------|

D:---------------------|

A:---------------------|

E:---------------------|

3:46 Riffs...[Play twice]

e:---------------------------------------------------------------|

B:---------------------------------------------------------------|

G:-7----5--7-5------3--5--7--------------------------------------|

D:-7----5--7-5--5---3--5--7--------------------------------------|

A:-5----3--5-3--5---1--3--5--------------------------------------|

E:--------------3------------------------------------------------|

4:24

e:-------------------------------|

B:-------------------------------|

G:/-7*---5--7-5-----3--5--7*----|

D:/-7*---5--7-5--5*-3--5--7*----|

A:/-5*---3--5-3--5*-1--3--5*----|

E:----------------3*-------------|

4:44

e:---------------------------|

B:---------------------------|

G:-7*---5--7-5-------3---5-7-|

D:-7*---5-------5*---------7-|

A:-5*---3-------5*-1---3---5-|

E:--------------3*-----------|

5:05

e:-----------------------|

B:-----------------------|

G:7----5----------7------|

D:--7----5-------7-------|

A:-----------7--5--------|

E:-----------------------|

Get this song at:  amazon.com sheetmusicplus.com

Share your thoughts

0 Comments found