Nightwish

Nightwish - Walking In The Air bass tab

G||------------------|------------------|------------------|------------------|

D||------------------|------------------|------------------|------------------|

A||------------------|------------------|------------------|------------------|

E||------------------|------------------|------------------|------------------|

------------------|------------------|-------------------|------------------|

------------------|------------------|--0----------------|------------------|

------------------|------------------|-------------------|------------------|

------------------|------------------|-------------------|------------------|

--------------------|-------------------|--------------------|

--0--------------0--|--0----------------|--0--------------0--|

--------------------|-------------------|--------------------|

--------------------|-------------------|--------------------|

--------------------|-------------------|--------------------|

--------------------|-------------------|--------------------|

--3--------------3--|--3----------------|--------------------|

--------------------|-------------------|--3--------------3--|

--------------------|--------------------|-------------------|

--------------------|--0--------------0--|--0----------------|

--1--------3--------|--------------------|-------------------|

--------------------|--------------------|-------------------|

--2----------------|-------------------|--0----------------|-------------------|

-------------------|--3----------------|-------------------|-------------------|

-------------------|-------------------|-------------------|--3----------------|

-------------------|-------------------|-------------------|-------------------|

--0----------------|--5----------------|--3----------------|--2----------------|

-------------------|-------------------|-------------------|-------------------|

-------------------|-------------------|-------------------|-------------------|

-------------------|-------------------|-------------------|-------------------|

--------------------|-------------------|--------------------|

--0--------------0--|--0----------------|--0--------------0--|

--------------------|-------------------|--------------------|

--------------------|-------------------|--------------------|

--------------------|-------------------|--------------------|

--------------------|-------------------|--------------------|

--3--------------3--|--3----------------|--------------------|

--------------------|-------------------|--3--------------3--|

--------------------|--------------------|-------------------|

--------------------|--0--------------0--|--0----------------|

--1--------3--------|--------------------|-------------------|

--------------------|--------------------|-------------------|

-------------------|-------------------|-------------------|-------------------|

--0----------------|-------------------|--0----------------|-------------------|

-------------------|--3----------------|-------------------|--3----------------|

-------------------|-------------------|-------------------|-------------------|

-------------------|-------------------|-------------------|------------------|

-------------------|-------------------|-------------------|------------------|

--1----------------|-------------------|-------------------|------------------|

-------------------|--3----------------|--1----------------|------------------|

--2----------------|-------------------|--0----------------|-------------------|

-------------------|--3----------------|-------------------|-------------------|

-------------------|-------------------|-------------------|--3----------------|

-------------------|-------------------|-------------------|-------------------|

--0----------------|--5----------------|--3----------------|--2----------------|

-------------------|-------------------|-------------------|-------------------|

-------------------|-------------------|-------------------|-------------------|

-------------------|-------------------|-------------------|-------------------|

------------------|--------------------|-------------------|

------------------|--0--------------0--|--0----------------|

------------------|--------------------|-------------------|

------------------|--------------------|-------------------|

--------------------|--------------------|-------------------|

--0--------------0--|--------------------|-------------------|

--------------------|--3--------------3--|--3----------------|

--------------------|--------------------|-------------------|

--------------------|--------------------|--------------------|

--------------------|--------------------|--0--------------0--|

--------------------|--1--------3--------|--------------------|

--3--------------3--|--------------------|--------------------|

-------------------|--------------------|-------------------|

--0----------------|--0--------------0--|--0----------------|

-------------------|--------------------|-------------------|

-------------------|--------------------|-------------------|

--------------------|--------------------|-------------------|

--0--------------0--|--------------------|-------------------|

--------------------|--3--------------3--|--3----------------|

--------------------|--------------------|-------------------|

--------------------|--------------------|--------------------|

--------------------|--------------------|--0--------------0--|

--------------------|--1--------3--------|--------------------|

--3--------------3--|--------------------|--------------------|

-------------------|------------------|------------------|------------------|

--0----------------|------------------|------------------|------------------|

-------------------|------------------|------------------|------------------|

-------------------|------------------|------------------|------------------|

------------------|------------------|------------------|------------------|

------------------|------------------|------------------|------------------|

------------------|------------------|------------------|------------------|

------------------|------------------|------------------|------------------|

------------------|------------------|------------------|------------------|

------------------|------------------|------------------|------------------|

------------------|------------------|------------------|------------------|

------------------|------------------|------------------|------------------|

------------------|--------------------|-------------------|

------------------|--0--------------0--|--0----------------|

------------------|--------------------|-------------------|

------------------|--------------------|-------------------|

--------------------|--------------------|-------------------|

--0--------------0--|--------------------|-------------------|

--------------------|--3--------------3--|--3----------------|

--------------------|--------------------|-------------------|

--------------------|--------------------|--------------------|

--------------------|--------------------|--0--------------0--|

--------------------|--1--------3--------|--------------------|

--3--------------3--|--------------------|--------------------|

-------------------|--------------------|-------------------|

--0----------------|--0--------------0--|--0----------------|

-------------------|--------------------|-------------------|

-------------------|--------------------|-------------------|

--------------------|--------------------|-------------------|

--0--------------0--|--------------------|-------------------|

--------------------|--3--------------3--|--3----------------|

--------------------|--------------------|-------------------|

--------------------|--------------------|--------------------|

--------------------|--------------------|--0--------------0--|

--------------------|--1--------3--------|--------------------|

--3--------------3--|--------------------|--------------------|

-----------7--------|------------------------------|

--0-----------------|--0--0-0-0--0-0-0--0-0-0--0-0-|

--------------------|------------------------------|

--------------------|------------------------------|

------------------------------|------------------------------|

--0--0-0-0--0-0-0--0-0-0--0-0-|--0--0-0-0--0-0-0--0-0-0--0-0-|

------------------------------|------------------------------|

------------------------------|------------------------------|

------------------------------|------------------------------|

------------------------------|------------------------------|

--3--3-3-3--3-3-3--3-3-3--3-3-|--3--3-3-3--3-3-3--3-3-3--3-3-|

------------------------------|------------------------------|

------------------------------|--------------------|

------------------------------|--------------------|

------------------------------|--1--------3--------|

--3--3-3-3--3-3-3--3-3-3--3-3-|--------------------|

------------------------------|------------------------------|

--0--0-0-0--0-0-0--0-0-0--0-0-|--0--0-0-0--0-0-0--0-0-0--0-0-|

------------------------------|------------------------------|

------------------------------|------------------------------|

------------------------------|------------------------------|

--0--0-0-0--0-0-0--0-0-0--0-0-|--0--0-0-0--0-0-0--0-0-0--0-0-|

------------------------------|------------------------------|

------------------------------|------------------------------|

------------------------------|------------------------------|

------------------------------|------------------------------|

--3--3-3-3--3-3-3--3-3-3--3-3-|--3--3-3-3--3-3-3--3-3-3--3-3-|

------------------------------|------------------------------|

------------------------------|--------------------|-------------------|

------------------------------|--------------------|--0----------------|

------------------------------|--1--------3--------|-------------------|

--3--3-3-3--3-3-3--3-3-3--3-3-|--------------------|-------------------|

Taken from The BassMasta -- http://www.tabs-database.com

Get this song at:  amazon.com sheetmusicplus.com

Share your thoughts

0 Comments found