Nightwish

Nightwish - Tutankhamen guitar tab

Hope you like it enjoy !!

e:--------------------|

B:--------------------|

G:-6---2--6---2-------|

D:-6---2--6---2-------|

A:-4---0--4---0-------|

E:--------------------|

Riff 1

E5

e:--------------------------------------------------------------------------------|

B:--------------------------------------------------------------------------------|

G:-----------------------------------------------------------------9--------------|

D:---9-7-9-----7------------------9-7-9-----7---------------7h9h10---10p9p7-------|

A:-7-------10----10-9-10-9------7-------10----10-9---7h9h10-----------------10p9p7|

E:-------------------------10-----------------------------------------------------|

Play this 2 times

Riff 2

C#5

e:-----------------------------------------------------------------------------|

B:-----------------------------------------------------------------------------|

G:-----------------5-----------------------------------------------------------|

D:---6-6-4-6-7-6-7---7-6-4-7-6-----6-4-----------------------------------------|

A:-4---------------------------4-4-----7--------7-6----------------------------|

E:---------------------------------------5-5--5--------------------------------|

2 times

Then play again the riff 1 two times

VERSE (0:39)

e:---------------------|

B:---------------------|

G:-6*~-----------------|

D:---------------------|

A:---------------------|

E:---------------------|

| C#5 E5

e:-----------------------------------------------------------------------------|

B:-----------------------------------------------------------------------------|

G:-6---------------------------------------------------------------------------|

D:-6-------------------------5-----5--2----------------------------------------|

A:-4---------------------3-3-3-3-3-3--2--------------------------------3-----3-|

E:------------------------------------0----------------------------1-1-1-1-1-1-|

p.m. . . . p.m. . . .

C#5 E5

e:-----------------------------------------------------------------------------|

B:-----------------------------------------------------------------------------|

G:-----------------------------------------------------------------------------|

D:-6---6---6-----6----6-6-----5-----5-9---9---9-----9----9-9-----10----10------|

A:-4---4---4-4-4-4...-4-4-3-3-3-3-3-3-7---7---7-7-7-7...-7-7--8-8-8-8-8-8------|

E:-----------------------------------------------------------------------------|

INTERLUDE

e:-----------------------------------------------------------------------------|

B:----------------------------------------------------------------2-TIMES------|

G:-----------------------------------------------------------------------------|

D:-7-----7/8---87/87-----7---75---5/7--------------------------------------|

A:-5-----5/6---65/65-----5---53---3/5--------------------------------------|

E:-----------------------------------------------------------------------------|

CHORUS (1:36)

e:-----------------------------------------------------------------------------|

B:-----------------------------------------------------------------------------|

G:----------------------------------------------------------------2 TIMES------|

D:-----------------------------------------------------------3-----------------|

A:-5-5-5---5-5-5---3-5-------6-----6---5-5-5---5-5-5---3-5---1-3---------------|

E:-3-3-3---3-3-3---1-3---3-3-4-4-4-4---3-3-3---3-3-3---1-3-----1---------------|

Then verse, 1 X interlude, chorus

BRIDGE (3:01)

e:-----------------------------------------------------------------------------|

B:-----------------------------------------------------------------------------|

G:----------------------------------------------------------------2 TIMES------|

D:-----------------------------------------------------------------------------|

A:-2-----2-----2---------2-----2-----2-----------------------------------------|

E:-0-0-0-0-0-0-0-0-0-1/4-0-0-0-0-0-0-0-0-0-1p0-0-------------------------------|

e:-----------------------------------------------------------------------------|

B:-----------------------------------------------------------------------------|

G:----------------------------------------------------------------2 TIMES------|

D:-6-----6-----6---------6-----6-----6-----------------------------------------|

A:-4-4-4-4-4-4-4-4-4-5/8-4-4-4-4-4-4-4-4-4-5-4-2-------------------------------|

E:-----------------------------------------------------------------------------|

Play this part 2 times, then 2 X interlude, chorus

e:---------------------|

B:---------------------|

G:---------------------|

D:---------------------| THEN BRIDGE.

A:-2-----2-----2-------|

E:-0-0-0-0-0-0-0-------|

p.m. . . . .

Freakmen

Get this song at:  amazon.com sheetmusicplus.com

Share your thoughts

0 Comments found