Nightwish

Nightwish - Tutankhamen bass tab

G||-------------------|-------------------|-------------------|

D||-------------------|-------------------|-------------------|

A||--4----------------|----------0--------|--4----------------|

E||-------------------|-------------------|-------------------|

-------------------|-------------------|------------------|-------------------|

-------------------|-------------------|------------------|-------------------|

----------0--------|-------------------|------------------|-------------------|

-------------------|--0----------------|------------------|--0----------------|

------------------|-------------------|-------------------|-------------------|

------------------|-------------------|-------------------|-------------------|

------------------|--4----------------|----------0--------|--4----------------|

------------------|-------------------|-------------------|-------------------|

-------------------|-------------------|------------------|-------------------|

-------------------|-------------------|------------------|-------------------|

----------0--------|-------------------|------------------|-------------------|

-------------------|--0----------------|------------------|--0----------------|

------------------|--------------------------|--------------------------|

------------------|--------------------------|--------------------------|

------------------|--4--4--4--4--4--4--4--4--|--4--4--4--4--4--4--4--4--|

------------------|--------------------------|--------------------------|

--------------------------|----------------------------|

--------------------------|----------------------------|

--4--4--4--4--4--4--4--4--|--4--4--4--4--3-3-3--3-3-3--|

--------------------------|----------------------------|

--------------------------|--------------------------|

--------------------------|--------------------------|

--------------------------|--------------------------|

--0--0--0--0--0--0--0--0--|--0--0--0--0--0--0--0--0--|

--------------------------|----------------------------|

--------------------------|----------------------------|

--------------------------|----------------------------|

--0--0--0--0--0--0--0--0--|--0--0--0--0--1-1-1--1-1-1--|

--------------------------|--------------------------|

--------------------------|--------------------------|

--4--4--4--4--4--4--4--4--|--4--4--4--4--4--4--4--4--|

--------------------------|--------------------------|

--------------------------|----------------------------|

--------------------------|----------------------------|

--4--4--4--4--4--4--4--4--|--4--4--4--4--3-3-3--3-3-3--|

--------------------------|----------------------------|

--------------------------|--------------------------|

--------------------------|--------------------------|

--------------------------|--------------------------|

--0--0--0--0--0--0--0--0--|--0--0--0--0--0--0--0--0--|

--------------------------|----------------------------|--------------------|

--------------------------|----------------------------|--------------------|

--------------------------|----------------------------|--5--------------5--|

--0--0--0--0--0--0--0--0--|--0--0--0--0--1-1-1--1-1-1--|--------------------|

-----------------------|--------------------|---------------------|

-----------------------|--------------------|---------------------|

--6------6--5/6/5------|------5----------5--|--3------3--5--------|

-----------------------|--------------------|---------------------|

--------------------|-----------------------|--------------------|

--------------------|-----------------------|--------------------|

--5--------------5--|--6------6--5/6/5------|------5----------5--|

--------------------|-----------------------|--------------------|

---------------------|-------------------------|-------------------------|

---------------------|-------------------------|-------------------------|

--3------3--5--------|-------------------------|-------------------------|

---------------------|----3-3-3----3-3-3----1--|--3--------4-4-4--4-4-4--|

-------------------------|---------------------|-------------------------|

-------------------------|---------------------|-------------------------|

-------------------------|-----------1---------|-------------------------|

----3-3-3----3-3-3----1--|--3-------------1----|----3-3-3----3-3-3----1--|

-------------------------|-------------------------|---------------------|

-------------------------|-------------------------|---------------------|

-------------------------|-------------------------|-----------1---------|

--3--------4-4-4--4-4-4--|----3-3-3----3-3-3----1--|--3-------------1----|

--------------------------|--------------------------|

--------------------------|--------------------------|

--4--4--4--4--4--4--4--4--|--4--4--4--4--4--4--4--4--|

--------------------------|--------------------------|

--------------------------|----------------------------|

--------------------------|----------------------------|

--4--4--4--4--4--4--4--4--|--4--4--4--4--3-3-3--3-3-3--|

--------------------------|----------------------------|

--------------------------|--------------------------|

--------------------------|--------------------------|

--------------------------|--------------------------|

--0--0--0--0--0--0--0--0--|--0--0--0--0--0--0--0--0--|

--------------------------|----------------------------|

--------------------------|----------------------------|

--------------------------|----------------------------|

--0--0--0--0--0--0--0--0--|--0--0--0--0--1-1-1--1-1-1--|

--------------------------|--------------------------|

--------------------------|--------------------------|

--4--4--4--4--4--4--4--4--|--4--4--4--4--4--4--4--4--|

--------------------------|--------------------------|

--------------------------|----------------------------|

--------------------------|----------------------------|

--4--4--4--4--4--4--4--4--|--4--4--4--4--3-3-3--3-3-3--|

--------------------------|----------------------------|

--------------------------|--------------------------|

--------------------------|--------------------------|

--------------------------|--------------------------|

--0--0--0--0--0--0--0--0--|--0--0--0--0--0--0--0--0--|

--------------------------|----------------------------|--------------------|

--------------------------|----------------------------|--------------------|

--------------------------|----------------------------|--5--------------5--|

--0--0--0--0--0--0--0--0--|--0--0--0--0--1-1-1--1-1-1--|--------------------|

-----------------------|--------------------|---------------------|

-----------------------|--------------------|---------------------|

--6------6--5/6/5------|------5----------5--|--3------3--5--------|

-----------------------|--------------------|---------------------|

-------------------------|-------------------------|-------------------------|

-------------------------|-------------------------|-------------------------|

-------------------------|-------------------------|-------------------------|

----3-3-3----3-3-3----1--|--3--------4-4-4--4-4-4--|----3-3-3----3-3-3----1--|

---------------------|-------------------------|-------------------------|

---------------------|-------------------------|-------------------------|

-----------1---------|-------------------------|-------------------------|

--3-------------1----|----3-3-3----3-3-3----1--|--3--------4-4-4--4-4-4--|

-------------------------|---------------------|-----------------------------|

-------------------------|---------------------|-----------------------------|

-------------------------|-----------1---------|-----------------------------|

----3-3-3----3-3-3----1--|--3-------------1----|--0--0-0-0--0-0-0--0-0-1--4--|

------------------------------|-----------------------------|

------------------------------|-----------------------------|

---------------------------5--|-----------------------------|

--0--0-0-0--0-0-0--0-0-1-0----|--0--0-0-0--0-0-0--0-0-1--4--|

------------------------------|-----------------------------|

------------------------------|--------------------------3--|

---------------------------5--|--4--4-4-4--4-4-4--4-4-5-----|

--0--0-0-0--0-0-0--0-0-1-0----|-----------------------------|

------------------------------|-----------------------------|

------------------------------|--------------------------3--|

--4--4-4-4--4-4-4--4-4-5h4-2--|--4--4-4-4--4-4-4--4-4-5-----|

------------------------------|-----------------------------|

------------------------------|-----------------------------|

------------------------------|-----------------------------|

--4--4-4-4--4-4-4--4-4-5h4-2--|-----------------------------|

------------------------------|--0--0-0-0--0-0-0--0-0-1--4--|

------------------------------|-----------------------------|

------------------------------|-----------------------------|

---------------------------5--|-----------------------------|

--0--0-0-0--0-0-0--0-0-1-0----|--0--0-0-0--0-0-0--0-0-1--4--|

------------------------------|-----------------------------|

------------------------------|--------------------------3--|

---------------------------5--|--4--4-4-4--4-4-4--4-4-5-----|

--0--0-0-0--0-0-0--0-0-1-0----|-----------------------------|

------------------------------|-----------------------------|

------------------------------|--------------------------3--|

--4--4-4-4--4-4-4--4-4-5h4-2--|--4--4-4-4--4-4-4--4-4-5-----|

------------------------------|-----------------------------|

------------------------------|--------------------|-----------------------|

------------------------------|--------------------|-----------------------|

--4--4-4-4--4-4-4--4-4-5h4-2--|--5--------------5--|--6------6--5/6/5------|

------------------------------|--------------------|-----------------------|

--------------------|---------------------|--------------------|

--------------------|---------------------|--------------------|

------5----------5--|--3------3--5--------|--5--------------5--|

--------------------|---------------------|--------------------|

-----------------------|--------------------|---------------------|

-----------------------|--------------------|---------------------|

--6------6--5/6/5------|------5----------5--|--3------3--5--------|

-----------------------|--------------------|---------------------|

-------------------------|-------------------------|-------------------------|

-------------------------|-------------------------|-------------------------|

-------------------------|-------------------------|-------------------------|

----3-3-3----3-3-3----1--|--3--------4-4-4--4-4-4--|----3-3-3----3-3-3----1--|

---------------------|-------------------------|-------------------------|

---------------------|-------------------------|-------------------------|

-----------1---------|-------------------------|-------------------------|

--3-------------1----|----3-3-3----3-3-3----1--|--3--------4-4-4--4-4-4--|

-------------------------|---------------------|------------------------------|

-------------------------|---------------------|------------------------------|

-------------------------|-----------1---------|------------------------------|

----3-3-3----3-3-3----1--|--3-------------1----|--0--0-0-0--0-0-0--0-0-0--0-0-|

------------------------------|-----------------------------|

------------------------------|-----------------------------|

------------------------------|-----------------------------|

--0--0-0-0--0-0-0--0-0-0--0-0-|--0--0-0-0--0-0-0--0-0-1--4--|

------------------------------|-----------------------------|

------------------------------|-----------------------------|

---------------------------5--|-----------------------------|

--0--0-0-0--0-0-0--0-0-1-0----|--0--0-0-0--0-0-0--0-0-1--4--|

------------------------------|-----------------------------|

------------------------------|--------------------------3--|

---------------------------5--|--4--4-4-4--4-4-4--4-4-5-----|

--0--0-0-0--0-0-0--0-0-1-0----|-----------------------------|

------------------------------|-----------------------------|

------------------------------|--------------------------3--|

--4--4-4-4--4-4-4--4-4-5h4-2--|--4--4-4-4--4-4-4--4-4-5-----|

------------------------------|-----------------------------|

------------------------------|-----------------------------|

------------------------------|-----------------------------|

--4--4-4-4--4-4-4--4-4-5h4-2--|-----------------------------|

------------------------------|--0--0-0-0--0-0-0--0-0-1--4--|

------------------------------|-----------------------------|

------------------------------|-----------------------------|

---------------------------5--|-----------------------------|

--0--0-0-0--0-0-0--0-0-1-0----|--0--0-0-0--0-0-0--0-0-1--4--|

------------------------------|-----------------------------|

------------------------------|--------------------------3--|

---------------------------5--|--4--4-4-4--4-4-4--4-4-5-----|

--0--0-0-0--0-0-0--0-0-1-0----|-----------------------------|

------------------------------|-----------------------------|

------------------------------|--------------------------3--|

--4--4-4-4--4-4-4--4-4-5h4-2--|--4--4-4-4--4-4-4--4-4-5-----|

------------------------------|-----------------------------|

------------------------------||

------------------------------||

--4--4-4-4--4-4-4--4-4-5h4-2--||

------------------------------||

Taken from The BassMasta -- http://www.tabs-database.com

Get this song at:  amazon.com sheetmusicplus.com

Share your thoughts

0 Comments found