Nightwish

Nightwish - This Moment Is Eternity guitar tab

Keyboard - Strings 2nd time

e:------------------|-----------------|-----------------8-10-|

B:------------------|-----------------|----------------------|

G:*-7---5----------*|-----------------|*-7---5---------------|

D:*-7---5---5---3--*|--7---2---7---5--|*-7---5---5---3-------|

A:--5---3---5---3---|--7---2---7---5--|--5---3---5---3-------|

E:----------3---1---|--5---0---5---3--|----------3---1-------|

Guitar

e:----------------------|

B:----------------------|

G:*-7--75--5------------|

D:*-7--75--55--53-------|

A:--5--53--35--53-------|

E:----------3--31-------|

(1:30)

R.H. Keyboard - Piano [8va]

e:-11-------11-10-8-10-8-----------8-10-11-------11-10-8-10-8---------8-8-10-|

B:---------------------------------------------------------------------------|

G:---------------------------------------------------------------------------|

D:---------------------------------------------------------------------------|

A:---------------------------------------------------------------------------|

E:---------------------------------------------------------------------------|

L.H. Keyboard - Piano

e:---------------------------------------------------------------------------|

B:---------------------------------------------------------------------------|

G:------5------------------------------------5-------------------------------|

D:----5--------------------3---------------5--------------------3------------|

A:--3--------------------3---3-----------3--------------------3---3----------|

E:---------------------1-------1----------------------------1-------1--------|

R.H. Keyboard [8va]

e:-6-----6-6-565-3-5-6----------6-6-8-6-----6-6-5-3-5-8--10------------1-----|

B:-------------------------------------------------------------------4-------|

G:---------------------------------------------------------------------------|

D:---------------------------------------------------------------------------|

A:---------------------------------------------------------------------------|

E:---------------------------------------------------------------------------|

L.H. Keyboard

e:---------------------------------------------------------------------------|

B:---------------------------------------------------------------------------|

G:-----------------------3---------------------------------------------------|

D:-----5---------------3---3--------------5----------------------------------|

A:---5---------------1-------1----------5------------------------------------|

E:-3----------------------------------3--------------------------------------|

Guitar

e:---------------------------------------------------------------------------|

B:---------------------------------------------------------------------------|

G:---------------------------------------------------------------------------|

D:----------------------------------------------------6---8------------------|

A:----------------------------------------------------6---8------------------|

E:----------------------------------------------------4---6------------------|

Keyboard (and vocals)

e:-3--4-6--8--6--1---1--3-4--6--3-4-3--3--4-6--8--6--1---6-6-4-4--6----------|

B:---------------------------------------------------------------------------|

G:---------------------------------------------------------------------------|

D:---------------------------------------------------------------------------|

A:---------------------------------------------------------------------------|

E:---------------------------------------------------------------------------|

Guitar

e:---------------------------------------------------------------------------|

B:---------------------------------------------------------------------------|

G:-8----------------------------5------8--------------------------5----------|

D:-8----------8------3----------5------8----------8------6---8----5----------|

A:-6----------8------3----------3------6----------8------6---8----3----------|

E:------------6------1----------------------------6------4---6---------------|

Keyboard (and vocals)

e:-3--4-6--8--6--1---1--3-4--6--3-4-3--3--4-6--8--6--1-----6-6-4--3----------|

B:---------------------------------------------------------------------------|

G:---------------------------------------------------------------------------|

D:---------------------------------------------------------------------------|

A:---------------------------------------------------------------------------|

E:---------------------------------------------------------------------------|

Guitar

e:---------------------------------------------------------------------------|

B:---------------------------------------------------------------------------|

G:-8----------------------------5------8-------------------------------------|

D:-8----------8------3----------5------8----------8------6---8----2----------|

A:-6----------8------3----------3------6----------8------6---8----2----------|

E:------------6------1----------------------------6------4---6----0----------|

Keyboard - Flute

e:-0--0-2-3--3-2-0------0-1--3---5--7-8--12--10-8-10-7-----------------------|

B:-----------------3--3------------------------------------------------------|

G:---------------------------------------------------------------------------|

D:---------------------------------------------------------------------------|

A:---------------------------------------------------------------------------|

E:---------------------------------------------------------------------------|

Guitar

e:---------------------------------------------------------------------------|

B:---------------------------------------------------------------------------|

G:-----------------7---------------------------------------------------------|

D:-2---------------7-------------7------------5------------------------------|

A:-2---------------5-------------7------------5------------------------------|

E:-0-----------------------------5------------3------------------------------|

Keyboard

e:-3---3-5-7--7-5-3-1--1-3-5-5--7-8-10-12--12-10-8--7--8-7--5--7------------|

B:--------------------------------------------------------------------------|

G:--------------------------------------------------------------------------|

D:--------------------------------------------------------------------------|

A:--------------------------------------------------------------------------|

E:--------------------------------------------------------------------------|

Guitar

e:--------------------------------------------------------------------------|

B:--------------------------------------------------------------------------|

G:------------------7-------------------------------------------------------|

D:-2----------------7-------------7-----------------5---------------------2-|

A:-2----------------5-------------7-----------------5---------------------2-|

E:-0------------------------------5-----------------3---------------------0-|

[The End - (3:12)]

Get this song at:  amazon.com sheetmusicplus.com

Share your thoughts

0 Comments found