Nightwish

Nightwish - The Riddler bass tab

G||--------------------------|--------------------------|

D||--------------2-----------|--------------2-----------|

A||--0--2--3--0-----3--0--3--|--0--2--3--0-----3--0--3--|

E||--------------------------|--------------------------|

--------------------------|----------------------|------------------------|

--------------------------|--0------0------------|------------------------|

--------------2-----------|----------------------|--3----3--------3-------|

--0--2--3--0-----3--2--3--|------------3------3--|----------0--3-------0--|

------------------------|--------------------|----------------------|

------------------------|--------------------|----------------------|

--3----3--------3-------|--------------------|----------------------|

----------0--3-------0--|--3--------------3--|--1------1--0------0--|

--------------------------|--------------------------|

--------------2-----------|--------------2-----------|

--0--2--3--0-----3--0--3--|--0--2--3--0-----3--0--3--|

--------------------------|--------------------------|

--------------------------|----------------------|------------------------|

--------------------------|--0------0------------|------------------------|

--------------2-----------|----------------------|--3----3--------3-------|

--0--2--3--0-----3--2--3--|------------3------3--|----------0--3-------0--|

------------------------|--------------------|----------------------|

------------------------|--------------------|----------------------|

--3----3--------3-------|--------------------|----------------------|

----------0--3-------0--|--3--------------3--|--1------1--0------0--|

-------------------------|-----------------------|-------------------------|

-------------------------|-----------------------|-------------------------|

--0----0-----3--------0--|----0----3----0--0-----|-------------3-----------|

----------0-----0--0-----|--------------------0--|--1----1--0-----0--0--1--|

------------------------|-------------------------|-----------------------|

------------------------|-------------------------|-----------------------|

---------3-----2--------|--0----0-----3--------0--|----0----3----0--0-----|

----1-------0-----0--1--|----------0-----0--0-----|--------------------0--|

-------------------------|----------------------|--------------------------|

-------------------------|----------------------|--------------------------|

-------------3-----------|---------3------------|--0--0--0--0--0--0--0--0--|

--1----1--0-----0--0--1--|----1---------3----3--|--------------------------|

--------------------------|--------------------------|

--------------------------|--------------------------|

--0--0--0--0--0--0--0--0--|--3--3--3--3--3--3--3--3--|

--------------------------|--------------------------|

--------------------------|--------------------------|----------------------|

--------------------------|--0--0--0--0--0--0--0--0--|----------------------|

--3--3--3--3--3--3--3--3--|--------------------------|----------------------|

--------------------------|--------------------------|--1--1------3--3------|

--------------------------|--------------------------|----------------------|

--------------------------|--------------------------|----------------------|

--0--0--0--0--0--0--0--0--|--0--0--0--0--0--0--0--0--|--3----3----3----3----|

--------------------------|--------------------------|----------------------|

------------------------|----------------------|------------------------|

------------------------|----------------------|------------------------|

--3----3--3----3--3--3--|----------------------|------------------------|

------------------------|--3----3----3----3----|--3----3--3----3--3--3--|

----------------------|------------------------|-------------------|

--0----0----0----0----|--0----0--0----0--0--0--|-------------------|

----------------------|------------------------|--0----------------|

----------------------|------------------------|-------------------|

------------------|----------------------|------------------------|

------------------|----------------------|------------------------|

------------------|--3----3----3----3----|--3----3--3----3--3--3--|

------------------|----------------------|------------------------|

----------------------|------------------------|-------------------|

--0----0----0----0----|--0----0--0----0--0--0--|-------------------|

----------------------|------------------------|-------------------|

----------------------|------------------------|--1----------------|

-------------------|--------------------------|-------------------|

-------------------|--------------------------|-------------------|

-------------------|--------------------------|-------------------|

--3----------------|--0--0--0--0--0--0--0--0--|--0----------------|

----------------------|-----------------------|----------------------|

----------------------|-----------------------|----------------------|

--0----0----0----0----|--0----0--0------------|----------------------|

----------------------|-----------------3--3--|--1----1----1----1----|

-----------------------|------------------------|------------------------|

-----------------------|------------------------|------------------------|

-----------------------|-------------2----------|-------------2----------|

--1----1--1------1--3--|--0----3--0-----3--0----|--0----3--0-----3--0----|

---------------------|---------------------|--------------------------|

---------------------|---------------------|--------------------------|

---------------------|---------------------|--0--0--0--0--0--0--0--0--|

--3------3--3--------|--0------0--0--------|--------------------------|

------------------------|--------------------------|--------------------------|

------------------------|--------------------------|--------------------------|

--0--0--0--0--0---------|--------------------------|-----------------------3--|

-------------------3----|--1--1--1--1--1--1--1--1--|--1--1--1--1--1--1--1-----|

--------7--------7-----7--|--------7--------7-----7--|

--0--0-----0--0-----0-----|--0--0-----0--0-----0-----|

--------------------------|--------------------------|

--------------------------|--------------------------|

--------0--------0-----0--|--------------------------|

--------------------------|--------0--------0-----0--|

--------------------------|--------------------------|

--8--8-----8--8-----8-----|--3--3-----3--3-----3-----|

--------------------------|--------------------------|

--------------2-----------|--------------2-----------|

--0--2--3--0-----3--0--3--|--0--2--3--0-----3--0--3--|

--------------------------|--------------------------|

--------------------------|----------------------|------------------------|

--------------------------|--0------0------------|------------------------|

--------------2-----------|----------------------|--3----3--------3-------|

--0--2--3--0-----3--2--3--|------------3------3--|----------0--3-------0--|

------------------------|--------------------|----------------------|

------------------------|--------------------|----------------------|

--3----3--------3-------|--------------------|----------------------|

----------0--3-------0--|--3--------------3--|--1------1--0------0--|

-------------------------|-----------------------|-------------------------|

-------------------------|-----------------------|-------------------------|

--0----0-----3--------0--|----0----3----0--0-----|-------------3-----------|

----------0-----0--0-----|--------------------0--|--1----1--0-----0--0--1--|

------------------------|-------------------------|-----------------------|

------------------------|-------------------------|-----------------------|

---------3-----2--------|--0----0-----3--------0--|----0----3----0--0-----|

----1-------0-----0--1--|----------0-----0--0-----|--------------------0--|

-------------------------|----------------------|--------------------------|

-------------------------|----------------------|--------------------------|

-------------3-----------|---------3------------|--0--0--0--0--0--0--0--0--|

--1----1--0-----0--0--1--|----1---------3----3--|--------------------------|

--------------------------|--------------------------|

--------------------------|--------------------------|

--0--0--0--0--0--0--0--0--|--3--3--3--3--3--3--3--3--|

--------------------------|--------------------------|

--------------------------|--------------------------|----------------------|

--------------------------|--0--0--0--0--0--0--0--0--|----------------------|

--3--3--3--3--3--3--3--3--|--------------------------|----------------------|

--------------------------|--------------------------|--1--1------3--3------|

--------------------------|--------------------------|----------------------|

--------------------------|--------------------------|----------------------|

--0--0--0--0--0--0--0--0--|--0--0--0--0--0--0--0--0--|--3----3----3----3----|

--------------------------|--------------------------|----------------------|

------------------------|----------------------|------------------------|

------------------------|----------------------|------------------------|

--3----3--3----3--3--3--|----------------------|------------------------|

------------------------|--3----3----3----3----|--3----3--3----3--3--3--|

----------------------|------------------------|-------------------|

--0----0----0----0----|--0----0--0----0--0--0--|-------------------|

----------------------|------------------------|--0----------------|

----------------------|------------------------|-------------------|

------------------|----------------------|------------------------|

------------------|----------------------|------------------------|

------------------|--3----3----3----3----|--3----3--3----3--3--3--|

------------------|----------------------|------------------------|

----------------------|------------------------|-------------------|

--0----0----0----0----|--0----0--0----0--0--0--|-------------------|

----------------------|------------------------|-------------------|

----------------------|------------------------|--1----------------|

-------------------|--------------------------|-------------------|

-------------------|--------------------------|-------------------|

-------------------|--------------------------|-------------------|

--3----------------|--0--0--0--0--0--0--0--0--|--0----------------|

----------------------|-----------------------|----------------------|

----------------------|-----------------------|----------------------|

--0----0----0----0----|--0----0--0------------|----------------------|

----------------------|-----------------3--3--|--1----1----1----1----|

-----------------------|------------------------|------------------------|

-----------------------|------------------------|------------------------|

-----------------------|-------------2----------|-------------2----------|

--1----1--1------1--3--|--0----3--0-----3--0----|--0----3--0-----3--0----|

---------------------|---------------------|--------------------------|

---------------------|---------------------|--------------------------|

---------------------|---------------------|--0--0--0--0--0--0--0--0--|

--3------3--3--------|--0------0--0--------|--------------------------|

------------------------|--------------------------|--------------------------|

------------------------|--------------------------|--------------------------|

--0--0--0--0--0---------|--------------------------|-----------------------3--|

-------------------3----|--1--1--1--1--1--1--1--1--|--1--1--1--1--1--1--1-----|

--------7--------7-----7--|--------7--------7-----7--|

--0--0-----0--0-----0-----|--0--0-----0--0-----0-----|

--------------------------|--------------------------|

--------------------------|--------------------------|

--------0--------0-----0--|--------------------------|

--------------------------|--------0--------0-----0--|

--------------------------|--------------------------|

--8--8-----8--8-----8-----|--3--3-----3--3-----3-----|

--------------------------|--------------------------|

--------------2-----------|--------------2-----------|

--0--2--3--0-----3--0--3--|--0--2--3--0-----3--0--3--|

--------------------------|--------------------------|

--------------------------|----------------------|------------------------|

--------------------------|--0------0------------|------------------------|

--------------2-----------|----------------------|--3----3--------3-------|

--0--2--3--0-----3--2--3--|------------3------3--|----------0--3-------0--|

------------------------|--------------------|----------------------|

------------------------|--------------------|----------------------|

--3----3--------3-------|--------------------|----------------------|

----------0--3-------0--|--3--------------3--|--1------1--0------0--|

----------------------|------------5-4-2-0-2-0---|--------------------|

----------------------|------------------------0-|--2-----------------|

--0--------0--0-------|--0-----------------------|--------------------|

--------------------3-|--------------------------|------------------3-|

---------------------|----------------------|----------------------|

----------------0----|----------------------|----------------------|

--0--------3---------|--3--------3--3----3--|----------------------|

---------------------|----------------------|--3--------3--3-----3-|

----------------------|----------------------|----------------------|

--0--------0--0-----0-|----------------------|----------------------|

----------------------|--0--------0--0-----0-|--3--------3--3-----3-|

----------------------|----------------------|----------------------|

----------------------|---------------------|----------------------------------|

--0--------0--0-----0-|---------------------|----------------------------------|

----------------------|---------------------|----------------------------------|

----------------------|--1------1--3--------|--0-0-0-0-0-0-0-0-0-0-0-0-0-0-0-0-|

----------------------|-----------------------|----------------------|

----------------------|-----------------------|----------------------|

--0----0----0----0----|--0----0--0------------|----------------------|

----------------------|-----------------3--3--|--1----1----1----1----|

-----------------------|------------------------|------------------------|

-----------------------|------------------------|------------------------|

-----------------------|-------------2----------|-------------2----------|

--1----1--1------1--3--|--0----3--0-----3--0----|--0----3--0-----3--0----|

---------------------|---------------------|--------------------------|

---------------------|---------------------|--------------------------|

---------------------|---------------------|--0--0--0--0--0--0--0--0--|

--3--------3--3------|--0--------0--0------|--------------------------|

------------------------|--------------------------|--------------------------|

------------------------|--------------------------|--------------------------|

--0--0--0--0--0---------|--------------------------|-----------------------3--|

-------------------3----|--1--1--1--1--1--1--1--1--|--1--1--1--1--1--1--1-----|

--------7--------7-----7--|--------7--------7-----7--|

--0--0-----0--0-----0-----|--0--0-----0--0-----0-----|

--------------------------|--------------------------|

--------------------------|--------------------------|

--------0--------0-----0--|--------------------------|----------------------|

--------------------------|--------0--------0-----0--|----------------------|

--------------------------|--------------------------|--0----0----0----0----|

--8--8-----8--8-----8-----|--3--3-----3--3-----3-----|----------------------|

-----------------------|----------------------|-----------------------|

-----------------------|----------------------|-----------------------|

--0----0--0------------|----------------------|-----------------------|

-----------------3--3--|--1----1----1----1----|--1----1--1------2--3--|

------------------------|------------------------|---------------------|

------------------------|------------------------|---------------------|

-------------2----------|-------------2----------|---------------------|

--0----3--0-----3--0----|--0----3--0-----3--0----|--3--------3--3------|

---------------------|--------------------------|------------------------|

---------------------|--------------------------|------------------------|

---------------------|--0--0--0--0--0--0--0--0--|--0--0--0--0--0---------|

--0--------0--0------|--------------------------|-------------------3----|

--------------------------|--------------------------|

--------------------------|--------------------------|

--------------------------|-----------------------3--|

--1--1--1--1--1--1--1--1--|--1--1--1--1--1--1--1-----|

--------7--------7-----7--|--------7--------7-----7--|

--0--0-----0--0-----0-----|--0--0-----0--0-----0-----|

--------------------------|--------------------------|

--------------------------|--------------------------|

--------0--------0-----0--|--------------------------|-------------------|---||

--------------------------|--------0--------0-----0--|-------------------|---||

--------------------------|--------------------------|--0----------------|---||

--8--8-----8--8-----8-----|--3--3-----3--3-----3-----|-------------------|---||

Taken from The BassMasta -- http://www.tabs-database.com

Get this song at:  amazon.com sheetmusicplus.com

Share your thoughts

0 Comments found