Nightwish

Nightwish - The Kinslayer guitar tab

Author/Artist: Nightwish

Title: The Kinslayer

Album: Wishmaster

Intro:

e:---------------------------------------------------------------------------|

B:---------------------------------------------------------------------------|

G:------2-------------2---------------------2-------------2------------------|

D:-2-2--2--4--7--2-2--2--4--7--------2-2-2--2--4--7--2-2--2--4--7------------|

A:-2-2--0--2--5--2-2--0--2--5--5--4--2-2-2--0--2--5--2-2--0--2--5--5--4------|

E:-0-0-----------0-0-----------3--2--0-0-0-----------0-0-----------3--2--2---|

x x x x x x x x x

Part 1:

After the Intro 2X:

e:-----------------------------------------------------------------------------|

B:-----------------------------------------------------------------------------|

G:---------------------------------------------4-2-------4---4-----------------|

D:-2-----2-----5---4-------2---4---5-----5---------5-4-5---4-------------------|

A:---2-2---2-2---2---2-5-2---2---2---2-2---2-2---------------------------------|

E:-----------------------------------------------------------------------------|

x x x x x x x x x x x x x

Part 2:

This here 2X:

e:-----------------------------------------------------------------------------|

B:-----------------------------------------------------------------------------|

G:-----------------------------------------------------------------------------|

D:---------------------------------------------6-4-------6---6-----------------|

A:-4-----4-----7---6-------4---6---7-----7---------7-6-7---6-------------------|

E:---4-4---4-4---4---4-7-4---4---4---4-4---4-4---------------------------------|

x x x x x x x x x x x x x

In this part Tarja starts to sing: " For whom the gun tolls . . . .

You have to listen to the Rhythm while Tarja is singing!!!

Repeat this | |Repeat this | |

Part 15x: | |Part 15x: | |

e:-------------|-------------|---------------|--------------|

B:-------------|-------------|---------------|--------------|

G:-------------|-------------|---------------|--------------|

D:-------------|-------------|---------------|-4-3----------|

A:-------------|-------------|-5-4-2-0-------|-----7-6------|

E:-5-4-2-0-----|--0-2-4-5----|---------------|--------------|

x x x x x x x x x x x x

Repeat this | |Repeat this | |Repeat this |

Part 7x: | |Part 7x: | |Part 6x: |

e:-------------|---------|------------|--------|------------|-----------|---

B:-------------|---------|------------|--------|------------|-----------|---

G:-------------|---------|------------|--------|------------|--9-9--4-4-|---

D:-------------|--6--6---|------------|--5--5--|------------|--9-9--4-4-|---

A:-------------|--6--6---|------------|--5--5--|--5-4-2-0---|--7-7--2-2-|---

E:-5-4-2-0-----|--4--4---|--5-4-2-0---|--3--3--|------------|-----------|---

x x x x x x x x x x x x

. . . left to be followed "

Repeat this | |

Part 7x: | |

e:------------|---------------|

B:------------|---------------|

G:------------|---------------|

D:------------|--4-3----------|

A:-5-4-2-0----|------7-6------|

E:------------|---------------|

x x x x |

|

Part 2:

This here 2X:

e:-----------------------------------------------------------------------------|

B:-----------------------------------------------------------------------------|

G:-----------------------------------------------------------------------------|

D:---------------------------------------------6-4-------6---6-----------------|

A:-4-----4-----7---6-------4---6---7-----7---------7-6-7---6-------------------|

E:---4-4---4-4---4---4-7-4---4---4---4-4---4-4---------------------------------|

x x x x x x x x x x x x x

You have to listen to this part of the song to get the right rithm!

e:------------------------------------------------------|

B:------------------------------------------------------|

G:--6-6--6-6--6-6--6-6--6-6--6-6--6-6--6-6---66-6-77-7--|

D:--6-6--6-6--6-6--6-6--6-6--6-6--6-6--6-6---66-6-77-7--| A:--4-4--4-4--4-4--4-4--4-4--4-4--4-4--4-4---44-4-55-5--|

E:------------------------------------------------------|

x x x x x x x x x x x x x x x x xx xx

e:-----------------------------------------------------------|

B:-----------------------------------------------------------|

G:-----------------------------------------------------------|

D:--2-2--2-2--2-2--2-2--22---2--5-5--5-5--5-5--7-7--7-7--7---|

A:--2-2--2-2--2-2--2-2--22---2--5-5--5-5--5-5--7-7--7-7--7---|

E:--0-0--0-0--0-0--0-0--00-3-0--3-3--3-3--3-3--5-5--5-5--5---|

x x x x x x x x xx x x x x x x x x x x x x x

e:-----------------------------------------------------------|

B:-----------------------------------------------------------| G:---------------------------------------------5--5--5--5----|

D:--2-2--2-2--2-2--2-2--22---2--7-7--7-7--7-7--5--5--5--5----|

A:--2-2--2-2--2-2--2-2--22---2--7-7--7-7--7-7--3--3--3--3----|

E:--0-0--0-0--0-0--0-0--00-3-0--5-5--5-5--5-5----------------|

x x x x x x x x xx x x x x x x x x

e:-----------------------------------------------------------|

B:-----------------------------------------------------------|

G:-----------------------------------------------------------|

D:--2-2--2-2--2-2--2-2-22---2--5-5--5-5--5-5--7--7--7--7-----|

A:--2-2--2-2--2-2--2-2-22---2--5-5--5-5--5-5--7--7--7--7-----|

E:--0-0--0-0--0-0--0-0-00-3-0--3-3--3-3--3-3--5--5--5--5-----|

x x x x x x x x xx x x x x x x x x

e:------------------------------------------------------------|

B:------------------------------------------------------------|

G:---------------------------------------------4--4--4--4-----|

D:--2-2--2-2--2-2--2-2--22---2--7-7--7-7--7-7--4--4--4--4-----|

A:--2-2--2-2--2-2--2-2--22---2--7-7--7-7--7-7--2--2--2--2-----|

E:--0-0--0-0--0-0--0-0--00-3-0--5-5--5-5--5-5-----------------|

x x x x x x x x xx x x x x x x x x

e:------------------------------------------------------------------------------

B:------------------------------------------------------------------------------

G:-------7--7------------------7--7----------8-------7--7----------7-------7--7-

D:--2----7--7--2---7--7--7----7--7--2----7--8--2----7--7--2----7--7--2----7--7-

A:--2----5--5--2---7--7--7----5--5--2----7--6--2----5--5--2----7--5--2----5--5-

E:--0----------0---5--5--5----------0----5-----0----------0----5-----0---------

e:--------------|

B:--------------|

G:----------8---|

D:--2----7--8---|

A:--2----7--6---|

E:--0----5------|

And now Tarja's singing and the voice of the shootin boys is talking:

"Facing this unbearabla fear like meeting an old friend". . ."Time to die poor . . .

"In this world of million religions . . ." "Your praying is in vain . . ."

Repeat 2x:

e:---------------------------------------------------------------------------|

B:---------------------------------------------------------------------------|

G:---------------------------------------------------------------------------|

D:---------------------------------------------6-4-------6---6---6-----------|

A:-4-----4-----7---6-------4---6---7-----7---------7-6-7---6-----6-----------|

E:---4-4---4-4---4---4-7-4---4---4---4-4---4-4-------------------4-----------|

x x x x x x x x x x x x x

"Yahaha . . ."

e:-------------------------------------------------------

B:-------------------------------------------------------

G:----------------------7--7-------------------------7---

D:--2-2--2-2--2-2--2-2--7--7--2-2--2-2--2-2--2-2--7--7---

A:--2-2--2-2--2-2--2-2--5--5--2-2--2-2--2-2--2-2--7--5---

E:--0-0--0-0--0-0--0-0--------0-0--0-0--0-0--0-0--5------

x x x x x x x x x x x x x x x x

e:------------------------------------------------------|

B:------------------------------------------------------|

G:----------------------7--7-------------------------8--|

D:--2-2--2-2--2-2--2-2--7--7--2-2--2-2--2-2--2-2--7--8--|

A:--2-2--2-2--2-2--2-2--5--5--2-2--2-2--2-2--2-2--7--6--|

E:--0-0--0-0--0-0--0-0--------0-0--0-0--0-0--0-0--5-----|

x x x x x x x x x x x x x x x x

Only 1x:

e:---------------------------------------------------------------------------|

B:---------------------------------------------------------------------------|

G:---------------------------------------------------------------------------|

D:---------------------------------------------6-4-------6---6---6-----------|

A:-4-----4-----7---6-------4---6---7-----7---------7-6-7---6-----6-----------|

E:---4-4---4-4---4---4-7-4---4---4---4-4---4-4-------------------4-----------|

x x x x x x x x x x x x x

Here you have to listen to the Rithm.

The Voice of the boys: "Not a hero unless you die Our species eat the . . ."

e:-------------------------------------------------------|

B:-------------------------------------------------------|

G:--6-6--6-6--6-6--6-6--66-----9-9--9-9--9-9--11-11------|

D:--6-6--6-6--6-6--6-6--66-77--9-9--9-9--9-9--11-11-99---|

A:--4-4--4-4--4-4--4-4--44-77--7-7--7-7--7-7--9--9--99---|

E:-------------------------55-----------------------77---|

x x x x x x x x xx xx x x x x x x x x xx

Tarja with a high voice:"Drunk with the blood of your victims . . ."

e:-------------------------------------------------------|

B:-------------------------------------------------------|

G:--6-6--6-6--6-6--6-6--6-6--4-4--4-4--4-4---------------|

D:--6-6--6-6--6-6--6-6--6-6--4-4--4-4--4-4--7-7-7-7------|

A:--4-4--4-4--4-4--4-4--4-4--2-2--2-2--2-2--7-7-7-7------|

E:------------------------------------------5-5-5-5------|

x x x x x x x x x x x x x x x x

The Voice of the boys:"Run away with your impeccable kin!"

e:-------------------------------------------------------|

B:-------------------------------------------------------|

G:--6-6--6-6--6-6--6-6-66-----9-9--9-9--9--11-11-11-11---|

D:--6-6--6-6--6-6--6-6-66-77--9-9--9-9--9--11-11-11-11---|

A:--4-4--4-4--4-4--4-4-44-77--7-7--7-7--7--9--9--9--9----|

E:------------------------55-----------------------------|

x x x x x x x x xx xx x x x x x

Tarja talks:"Good wombs hath borne bad sons . . ."

e:-------------------------------------------------------|

B:-------------------------------------------------------|

G:--6-6--6-6--6-6--6-6--6-6--4-4--4-4--4-4---------------|

D:--6-6--6-6--6-6--6-6--6-6--4-4--4-4--4-4--6-6-6-6------|

A:--4-4--4-4--4-4--4-4--4-4--2-2--2-2--2-2--6-6-6-6------|

E:------------------------------------------4-4-4-4------|

x x x x x x x x x x x x x x x x

Listen to the Rithm:

Tarja:"Cursing.God.why? . . ." e:-----------------------------------------------------|

B:-----------------------------------------------------|

G:--6-6-6-6-66---------6-6-6-6-66----------------------|

D:--6-6-6-6-66----6-6--6-6-6-6-66----5-5-5-------------|

A:--4-4-4-4-44***-6-6--4-4-4-4-44***-5-5-5-------------|

E:----------------4-4----------------3-3-3-------------|

x x x x xx x x x x xx

Now you have to play it quikly:

Tarja:"15 candles Redeemers of this world

Dwell in hypocrisy: How were we supposed to know"

e:------------------------------------------|----------|

B:------------------------------------------|----------|

G:----------9-9-4-4-------------------------|-The-End--|

D:--4-------9-9-4-4--4--------4-3-----------|----------|

A:--4-------7-7-2-2--4------------7-6-------|----------|

E:--2*****-----------2*****-----------------|----------|

X x

Get this song at:  amazon.com sheetmusicplus.com

Share your thoughts

0 Comments found