Nightwish

Nightwish - The Kinslayer bass tab

G||---------------------|-----------------------|-------------------|

D||---------------------|---------0-------------|-------------------|

A||---------------0-----|----2------------------|-----------0-------|

E||--0-0----------------|-----------------0-0-0-|-------------------|

-------------------|---------------------|-----------------------|

-------0-----------|---------------------|---------0-------------|

--2----------------|---------------0-----|----2------------------|

-----------3--2--0-|--0-0----------------|-----------------0-0-0-|

-------------------|-------------------|----------------------------------|

-------------------|-------0-----------|----------------------------------|

-----------0-------|--2----------------|--2-2-2-2-2-2-2-2-2-2-2-2-2-2-2-2-|

-------------------|-----------3--2--0-|----------------------------------|

-----------------------------|----------------------------------|

-----------------------------|----------------------------------|

--2-2-2-2-2-2-2-2-0----------|--2-2-2-2-2-2-2-2-2-2-2-2-2-2-2-2-|

-----------------------3--2--|----------------------------------|

-----------------------------|----------------------------------|

-----------------------------|----------------------------------|

--2-2-2-2-2-2-2-2-0----------|----------------------------------|

-----------------------3--2--|--4-4-4-4-4-4-4-4-4-4-4-4-4-4-4-4-|

-----------------------------|----------------------------------|

------------------4----------|----------------------------------|

-----------------------7--6--|----------------------------------|

--4-4-4-4-4-4-4-4------------|--4-4-4-4-4-4-4-4-4-4-4-4-4-4-4-4-|

-----------------------------|----------------------------------|

------------------4----------|----------------------------------|

-----------------------7--6--|--4-------4-------4-------7-6-4-3-|

--4-4-4-4-4-4-4-4------------|----5-4-5---5-4-5---5-4-5---------|

----------------------------------|----------------------------------|

----------------------------------|----------------------------------|

--4-------4-------4-------------3-|--4-------4-------4-------7-6-4-3-|

----5-4-5---5-4-5---5-4-5-3-4-5---|----5-4-5---5-4-5---5-4-5---------|

----------------------------------|----------------------------------|

----------------------------------|--4-------4-------4-------7-6-4-3-|

--4-------4-------4-------4-5-6-7-|----5-4-5---5-4-5---5-4-5---------|

----5-4-5---5-4-5---5-4-5---------|----------------------------------|

----------------------------------|----------------------------------|

--4-------4-------4-------------3-|--4-------4-------4-------7-6-4-3-|

----5-4-5---5-4-5---5-4-5-3-4-5---|----5-4-5---5-4-5---5-4-5---------|

----------------------------------|----------------------------------|

----------------------------------|------------------------------|

--4-------4-------4-------8-7-6-5-|------------------------------|

----5-4-5---5-4-5---5-4-5---------|--4-4-4--4-4-4--4-4-4--4-4-4--|

----------------------------------|------------------------------|

----------------------------|------------------------------|

----------------------------|------------------------------|

--4-4-4--4-4-4--4-4-4-------|--4-4-4--4-4-4--4-4-4--4-4-4--|

-----------------------4----|------------------------------|

----------------------------|------------------------------|

----------------------------|------------------------------|

--4-4-4--4-4-4--4-4-4-------|------------------------------|

-----------------------3----|--2-2-2--2-2-2--2-2-2--2-2-2--|

--------------------------|------------------------------|

--------------------------|------------------------------|

---------------------2----|------------------------------|

--2-2-2--2-2-2--0---------|--2-2-2--2-2-2--2-2-2--2-2-2--|

-------------------------------|----------------------------------|

-------------------------------|----------------------------------|

-----------------------8-7-6-5-|--2-2-2-2-2-2-2-2-2-2-2-2-2-2-2-2-|

--2-2-2--2-2-2--2-2-2----------|----------------------------------|

-----------------------------|----------------------------------|

-----------------------------|----------------------------------|

--2-2-2-2-2-2-2-2-0----------|--2-2-2-2-2-2-2-2-2-2-2-2-2-2-2-2-|

-----------------------3--2--|----------------------------------|

-----------------------------|-----------------------------|

-----------------------------|-----------------------------|

--2-2-2-2-2-2-2-2-0----------|--4-4--4-4--4-4--4-4--4-4--4-|

-----------------------3--2--|-----------------------------|

-----------------------------|------------------------------|

--------------------------0--|--2-2--2-2--2-2--2-2--2-2-2-2-|

--4--4-4--4-4--4-4-4--4-4----|------------------------------|

-----------------------------|------------------------------|

--0-0--0-0--0-0--2-2--2-2-2-2-|------------------------------|

------------------------------|--2-2--2-2--2-2--2-2--2-2-2-2-|

------------------------------|------------------------------|

------------------------------|------------------------------|

----------------------------|------------------------------|

--0-0--0-0--0-0-------------|--2-2--2-2--2-2--2-2--2-2-2-2-|

-----------------3--3--3--3-|------------------------------|

----------------------------|------------------------------|

--0-0--0-0--0-0--2-2--2-2-2-2-|------------------------------|

------------------------------|--2-2--2-2--2-2--2-2--2-2-2-2-|

------------------------------|------------------------------|

------------------------------|------------------------------|

----------------------------|---------------------|---------------------|

--0-0--0-0--0-0-------------|---------------------|---------------------|

-----------------2--2--2--2-|--7------------5--5--|--7---------------5--|

----------------------------|---------------------|---------------5-----|

---------------------|-----------------------|--------------------------------|

---------------------|-----------------------|--------------------------------|

--7------------5--5--|--7--------------6--6--|--7-7-7-7-7-7-7-7-7-7-7-7-5--5--|

---------------------|-----------5--5--------|--------------------------------|

--------------------------------|--------------------------------|

--------------------------------|--------------------------------|

--7-7-7-7-7-7-7-7-7-7-7-7-5--5--|--7-7-7-7-7-7-7-7-7-7-7-7-5--5--|

--------------------------------|--------------------------------|

------------------------------|----------------------------------|

------------------------------|----------------------------------|

--7-7-7-7-7-7-7-7-------6--6--|----------------------------------|

------------------5--5--------|--4-4-4-4-4-4-4-4-4-4-4-4-4-4-4-4-|

-----------------------------|-------------------|------------------|

------------------4----------|-------------------|------------------|

-----------------------7--6--|-------------------|------------------|

--4-4-4-4-4-4-4-4------------|--4----------------|------------------|

----------------------------------|-----------------------------|

----------------------------------|------------------4----------|

----------------------------------|-----------------------7--6--|

--4-4-4-4-4-4-4-4-4-4-4-4-4-4-4-4-|--4-4-4-4-4-4-4-4------------|

-------------------|------------------|--------------------------------|

-------------------|------------------|--------------------------------|

-------------------|------------------|--7-7-7-7-7-7-7-7-7-7-7-7-5--5--|

--4----------------|------------------|--------------------------------|

--------------------------------|--------------------------------|

--------------------------------|--------------------------------|

--7-7-7-7-7-7-7-7-7-7-7-7----5--|--7-7-7-7-7-7-7-7-7-7-7-7-5--5--|

--------------------------5-----|--------------------------------|

--------------------------------|----------------------------------|

--------------------------------|----------------------------------|

--7-7-7-7-7-7-7-7-7-7-7-7----6--|----------------------------------|

--------------------------5-----|--4-4-4-4-4-4-4-4-4-4-4-4-4-4-4-4-|

-----------------------------|-------------------|------------------|

------------------4----------|-------------------|------------------|

-----------------------7--6--|-------------------|------------------|

--4-4-4-4-4-4-4-4------------|--4----------------|------------------|

------------------------------|------------------------------|

------------------------------|--2-2--2-2--2-2--4-4--4-4-4-4-|

--4-4--4-4--4-4--4-4--4-4-4-4-|------------------------------|

------------------------------|------------------------------|

------------------------------|----------------------------|

------------------------------|----------------------------|

--4-4--4-4--4-4--4-4--4-4-4-4-|--2-2--2-2--2-2--4--4--4--4-|

------------------------------|----------------------------|

------------------------------|----------------------------|

------------------------------|--2-2--2-2--2-2--4--4--4--4-|

--4-4--4-4--4-4--4-4--4-4-4-4-|----------------------------|

------------------------------|----------------------------|

------------------------------|----------------------------|

------------------------------|----------------------------|

--4-4--4-4--4-4--4-4--4-4-4-4-|--2-2--2-2--2-2-------------|

------------------------------|-----------------4--4--4--4-|

----------------------------------------------|

----------------------------------------------|

--4-4-4-4-4--4-4-4-4-4--4-4-4-4-4--4-4-4-4-4--|

----------------------------------------------|

----------------------------------------|

----------------------------------------|

--4-4-4-4-4--4-4-4-4-4--4-4-4-4-4-------|

-----------------------------------4----|

----------------------------------------------|

----------------------------------------------|

--4-4-4-4-4--4-4-4-4-4--4-4-4-4-4--4-4-4-4-4--|

----------------------------------------------|

----------------------------------------|

----------------------------------------|

--4-4-4-4-4--4-4-4-4-4--4-4-4-4-4-------|

-----------------------------------3----|

----------------------------------------------|

----------------------------------------------|

----------------------------------------------|

--2-2-2-2-2--2-2-2-2-2--2-2-2-2-2--2-2-2-2-2--|

-----------------------------------------|

-----------------------------------------|

--------------------------------------3--|

--2-2-2-2-2--2-2-2-2-2--2-2-2-2-2--0-----|

----------------------------------------------|

----------------------------------------------|

----------------------------------------------|

--2-2-2-2-2--2-2-2-2-2--2-2-2-2-2--2-2-2-2-2--|

-------------------------------------------|------------------||

-----------------------------------3-2-1-0-|------------------||

-------------------------------------------|------------------||

--2-2-2-2-2--2-2-2-2-2--2-2-2-2-2----------|------------------||

Taken from The BassMasta -- http://www.tabs-database.com

Get this song at:  amazon.com sheetmusicplus.com

Share your thoughts

0 Comments found