Nightwish

Nightwish - Swanheart guitar tab

Normal tuning: EADGBE

At 2:43

e:----------------------------------------------------|

B:----------------------------------------------------|

G:-----------------7---4--------------7----4---4------|

D:-2---2-5----7----7---4---2---2-5----7----4---4------|

A:-2---2-5----7----5---2---2---2-5----5----2---2------|

E:-0---0-3----5------------0---0-3--------------------|

Solo:

e:-------------------------------------------------------|

B:-/14~--------------------------------------------------|

G:------16--14~----14/16-14~---14h16--13~--14-13---------|

D:------------------------------------------------16-14~-|

A:-------------------------------------------------------|

E:-------------------------------------------------------|

e:----------------------------------|

B:----------------------------------|

G:-------13-14-14/16~--14~--13------|

D:-14-16------------------------16~-|

A:----------------------------------|

E:----------------------------------|

e:----------------------------------------------------|

B:-/14~-----------------------------------------------|

G:------16--14~----14/16-14~---16--13~--14-13---------|

D:---------------------------------------------16-14~-|

A:----------------------------------------------------|

E:----------------------------------------------------|

e:------------------------------------|

B:------------------------------------|

G:-------13-14-14/16~--14~--13-14/16~-|

D:-14-16------------------------------|

A:------------------------------------|

E:------------------------------------|

e:-------------------------------------------------------------------|

B:--------------------------------/9---------------------------------|

G:-8h9-9--8h9-9/11~--9p8-9p8----------11--9-8-9~--8h9p8--------------|

D:---------------------------11~------------------------9~-----------|

A:-----------------------------------------------------------12--11~-|

E:-------------------------------------------------------------------|

e:-------------------------------------------------------------|

B:-/9----------------------------------------------------------|

G:----11~---9~--8h9p8------------------------------------------|

D:--------------------9~---9/11~--9----------------------------|

A:----------------------------------12-11~----12~-11h12p11-----|

E:---------------------------------------------------------12~-|

e:-----------------------------|

B:-----------------------------|

G:-----------------------------|

D:--------------------11~--13~-|

A:--------11-12--14~-----------|

E:--12-14----------------------|

e:----------------------------------------------11-12~-12-11------------|

B:-------------------------11-12-11----11-12-14---------------12----14~-|

G:-------------------11-13----------13---------------------------13-----|

D:----------11-13-14----------------------------------------------------|

A:-14-13-14-------------------------------------------------------------|

E:----------------------------------------------------------------------|

Get this song at:  amazon.com sheetmusicplus.com

Share your thoughts

0 Comments found