Nightwish

Nightwish - Swanheart bass tab

G||------------------|------------------|------------------|------------------|

D||------------------|------------------|------------------|------------------|

A||------------------|------------------|------------------|------------------|

E||------------------|------------------|------------------|------------------|

------------------|------------------|------------------|------------------|

------------------|------------------|------------------|------------------|

------------------|------------------|------------------|------------------|

------------------|------------------|------------------|------------------|

------------------|------------------|------------------|------------------|

------------------|------------------|------------------|------------------|

------------------|------------------|------------------|------------------|

------------------|------------------|------------------|------------------|

------------------|------------------|------------------|------------------|

------------------|------------------|------------------|------------------|

------------------|------------------|------------------|------------------|

------------------|------------------|------------------|------------------|

------------------|------------------|------------------|------------------|

------------------|------------------|------------------|------------------|

------------------|------------------|------------------|------------------|

------------------|------------------|------------------|------------------|

------------------|------------------|------------------|------------------|

------------------|------------------|------------------|------------------|

------------------|------------------|------------------|------------------|

------------------|------------------|------------------|------------------|

------------------|------------------|------------------|------------------|

------------------|------------------|------------------|------------------|

------------------|------------------|------------------|------------------|

------------------|------------------|------------------|------------------|

------------------|------------------|------------------|------------------|

------------------|------------------|------------------|------------------|

------------------|------------------|------------------|------------------|

------------------|------------------|------------------|------------------|

------------------|------------------|------------------|------------------|

------------------|------------------|------------------|------------------|

------------------|------------------|------------------|------------------|

------------------|------------------|------------------|------------------|

------------------|------------------|------------------|------------------|

------------------|------------------|------------------|------------------|

------------------|------------------|------------------|------------------|

------------------|------------------|------------------|------------------|

------------------|------------------|------------------|------------------|

------------------|------------------|------------------|------------------|

------------------|------------------|------------------|------------------|

------------------|------------------|------------------|------------------|

------------------|------------------|------------------|------------------|

------------------|------------------|------------------|------------------|

------------------|------------------|------------------|------------------|

------------------|------------------|------------------|------------------|

------------------|------------------|------------------|------------------|

------------------|------------------|------------------|------------------|

------------------|------------------|------------------|------------------|

------------------|------------------|------------------|------------------|

------------------|------------------|------------------|------------------|

------------------|------------------|------------------|------------------|

------------------|------------------|------------------|------------------|

------------------|------------------|------------------|------------------|

------------------|------------------|------------------|------------------|

------------------|------------------|------------------|------------------|

------------------|------------------|------------------|------------------|

------------------|------------------|------------------|------------------|

------------------|------------------|------------------|------------------|

------------------|------------------|------------------|------------------|

------------------|------------------|------------------|------------------|

------------------|------------------|------------------|------------------|

------------------|------------------|------------------|------------------|

------------------|------------------|------------------|------------------|

------------------|------------------|------------------|------------------|

------------------|------------------|------------------|------------------|

------------------|------------------|------------------|------------------|

------------------|------------------|------------------|------------------|

------------------|------------------|------------------|------------------|

------------------|------------------|------------------|------------------|

------------------|------------------|------------------|------------------|

------------------|------------------|------------------|------------------|

------------------|------------------|------------------|------------------|

------------------|------------------|------------------|------------------|

------------------|------------------|------------------|------------------|

------------------|------------------|------------------|------------------|

------------------|------------------|------------------|------------------|

------------------|------------------|------------------|------------------|

------------------|------------------|------------------|------------------|

------------------|------------------|------------------|------------------|

------------------|------------------|------------------|------------------|

------------------|------------------|------------------|------------------|

------------------|------------------|------------------|------------------|

------------------|------------------|------------------|------------------|

------------------|------------------|------------------|------------------|

------------------|------------------|------------------|------------------|

------------------|-------------------|-------------------|-------------------|

------------------|-------------------|-------------------|-------------------|

------------------|--2----------------|----------0--------|-------------------|

------------------|-------------------|-------------------|--3----------------|

------------------|-------------------|------------------|-------------------|

------------------|-------------------|------------------|--0----------------|

------------------|--0----------------|------------------|-------------------|

------------------|-------------------|------------------|-------------------|

-------------------|-------------------|-------------------|-------------------|

-------------------|-------------------|-------------------|-------------------|

--4----------------|--2----------------|----------0--------|-------------------|

-------------------|-------------------|-------------------|--3----------------|

------------------|-------------------|------------------|-------------------|

------------------|--0----------------|------------------|-------------------|

------------------|-------------------|------------------|-------------------|

------------------|-------------------|------------------|--2----------------|

------------------|-------------------|-------------------|------------------|

------------------|-------------------|-------------------|------------------|

------------------|--2----------------|--2----------------|------------------|

------------------|-------------------|-------------------|------------------|

-------------------|------------------|-------------------|------------------|

-------------------|------------------|-------------------|------------------|

-------------------|------------------|--4----------------|------------------|

--2----------------|------------------|-------------------|------------------|

---------------------|-------------------|-------------------|

---------------------|-------------------|-------------------|

---------------------|-------------------|--2----------------|

--0------------0-----|--0----------------|-------------------|

-------------------|-------------------|------------------|-------------------|

-------------------|-------------------|------------------|-------------------|

--2----------------|-------------------|------------------|--4----------------|

-------------------|--2----------------|------------------|-------------------|

------------------|-------------------|------------------|--------------------|

------------------|-------------------|------------------|--------------------|

------------------|-------------------|------------------|--2------------2----|

------------------|--0----------------|------------------|--------------------|

-------------------|---------------------|--------------------|

-------------------|---------------------|--------------------|

--2----------------|--0------------0-----|--2------------2----|

-------------------|---------------------|--------------------|

-----------------1--------|--------------------------|---------------------|

--------------------------|--4-----------2--1--------|---------------------|

--4-----4--4--4-----4--4--|-----4--4--4--------4--2--|--0------------0-----|

--------------------------|--------------------------|---------------------|

--------------------|-----------------1--------|--------------------------|

--------------------|--------------------------|--4-----------2--1--------|

--2------------2----|--4-----4--4--4-----4--4--|-----4--4--4--------4--2--|

--------------------|--------------------------|--------------------------|

---------------------|---------------------|---------------------|

---------------------|---------------------|---------------------|

--0------------0-----|---------------------|---------------------|

---------------------|--0------------0-----|--2------------2-----|

---------------------|---------------------|---------------------|

---------------------|---------------------|---------------------|

--4------------4-----|--0------------0-----|--0------------0-----|

---------------------|---------------------|---------------------|

---------------------|---------------------|---------------------|

---------------------|---------------------|---------------------|

--2------------2-----|--2------------2-----|--4------------4-----|

---------------------|---------------------|---------------------|

-------------------|-------------------|------------------|------||

-------------------|-------------------|------------------|------||

--4----------------|--4----------------|------------------|------||

-------------------|-------------------|------------------|------||

Taken from The BassMasta -- http://www.tabs-database.com

Get this song at:  amazon.com sheetmusicplus.com

Share your thoughts

0 Comments found