Nightwish

Nightwish - Stargazers bass tab

G||-----------------------|-----------------------|-----------------------|

D||-----------------------|-----------------------|-----------------------|

A||-----------------------|-----------------------|-----------------------|

E||----------3-3-3-3--1---|----------3-3-3-3--1---|----------3-3-3-3--1---|

--------------------|-----------------------|-----------------------|

--1-----------------|-----------------------|-----------------------|

-----------3--------|-----------------------|-----------------------|

--------------------|----------3-3-3-3--1---|----------3-3-3-3--1---|

-----------------------|------------------------|

-----------------------|--1---------------------|

-----------------------|-----------3----3-3-3-3-|

----------3-3-3-3--1---|------------------------|

----------------------------------|----------------------------------|

----------------------------------|--0-0-0-0-0-0-0-0-----------------|

----------------------------------|----------------------------------|

--3-3-3-3-3-3-3-3-4-4-4-4-4-4-4-4-|------------------3-3-3-3-3-3-3-3-|

----------------------------------|----------------------------------|

--1-1-1-1-1-1-1-1-----------------|----------------------------------|

------------------3-3-3-3-3-3-3-3-|----------------------------------|

----------------------------------|--3-3-3-3-3-3-3-3-4-4-4-4-4-4-4-4-|

----------------------------------|----------------------------------|

--0-0-0-0-0-0-0-0-----------------|--1-1-1-1-1-1-1-1-3-3-3-3-3-3-3-3-|

----------------------------------|----------------------------------|

------------------3-3-3-3-3-3-3-3-|----------------------------------|

-----------------------|-----------------------|-----------------------|

-----------------------|-----------------------|-----------------------|

-----------------------|-----------------------|-----------------------|

----------3-3-3-3--1---|----------3-3-3-3--1---|----------3-3-3-3--1---|

---------------------------|----------------------------------|

--1------------------------|----------------------------------|

-----------3-3-3-3-3-3-3-3-|----------------------------------|

---------------------------|--3-3-3-3-3-3-3-3-3-3-3-3-3-3-3-3-|

----------------------------------|----------------------------------|

----------------------------------|----------------------------------|

----------------------------------|--1-1-1-1-1-1-1-1-----------------|

--1-1-1-1-1-1-1-1-1-1-1-1-1-1-1-1-|------------------1-1-1-1-1-1-1-1-|

----------------------------------|----------------------------------|

----------------------------------|----------------------------------|

----------------------------------|----------------------------------|

--3-3-3-3-3-3-3-3-3-3-3-3-3-3-3-1-|--3-3-3-3-3-3-3-3-3-3-3-3-3-3-3-3-|

----------------------------------|----------------------------------|

----------------------------------|------------------0-0-0-0-0-0-0-0-|

--------------------------------0-|--1-1-1-1-1-1-1-1-----------------|

--1-1-1-1-1-1-1-1-1-1-1-1-1-1-1---|----------------------------------|

----------------------------|--------------------------|

----------------------------|--------------------------|

----------------------------|--------------------------|

--3--3--3--3--3--3--3-3-3-3-|--4--4--4--4--3--3--3--3--|

----------------------------|-------------------------|

--1--1--1--1--1--1--1-1-1-1-|--------------3---3---3--|

----------------------------|--1--1--1--1-------------|

----------------------------|-------------------------|

----------------------------|---------------------------|

----------------------------|-------------------------0-|

----------------------------|-----------------------3---|

--3--3--3--3--3--3--3-3-3-3-|--4--4--4--4--3--3--3------|

----------------------------------|----------------------------------|

--1-1-1-1-1-1-1-1-----------------|----------------------------------|

----------------------------------|----------------------------------|

------------------1-1-1-1-1-1-1-1-|--3-3-3-3-3-3-3-3-3-3-3-3-3-3-3-3-|

----------------------------------|----------------------------------|

----------------------------------|----------------------------------|

--3-3-3-3-3-3-3-3-3-3-3-3-3-3-3-3-|--1-1-1-1-1-1-1-1-1-1-1-1-1-1-1-1-|

----------------------------------|----------------------------------|

----------------------------------|----------------------------------|

--1-1-1-1-1-1-1-1-----------------|----------------------------------|

------------------1-1-1-1-1-1-1-1-|--3-3-3-3-3-3-3-3-3-3-3-3-3-3-3-3-|

----------------------------------|----------------------------------|

----------------------------------|----------------------------------|

----------------------------------|----------------------------------|

--3-3-3-3-3-3-3-3-3-3-3-3-3-3-3-3-|--1-1-1-1-1-1-1-1-1-1-1-1-1-1-1-1-|

----------------------------------|----------------------------------|

----------------------------------|----------------------------------|

--1-1-1-1-1-1-1-1-----------------|----------------------------------|

----------------------------------|--3-3-3-3-3-3-3-3-3-3-3-3-3-3-3-3-|

------------------3-3-3-3-3-3-3-3-|----------------------------------|

----------------------------------|----------------------------------|

----------------------------------|----------------------------------|

----------------------------------|----------------------------------|

--3-3-3-3-3-3-3-3-3-3-3-3-3-3-3-3-|--1-1-1-1-1-1-1-1-1-1-1-1-1-1-1-1-|

----------------------------------|----------------------------------|

----------------------------------|----------------------------------|

--1-1-1-1-1-1-1-1-----------------|----------------------------------|

------------------1-1-1-1-1-1-1-1-|--3-3-3-3-3-3-3-3-3-3-3-3-3-3-3-3-|

----------------------------------|----------------------------------|

----------------------------------|----------------------------------|

----------------------------------|----------------------------------|

--3-3-3-3-3-3-3-3-3-3-3-3-3-3-3-3-|--1-1-1-1-1-1-1-1-1-1-1-1-1-1-1-1-|

----------------------------------|----------------------------|

------------------0-0-0-0-0-0-0-0-|----------------------------|

--1-1-1-1-1-1-1-1-----------------|----------------------------|

----------------------------------|--3--3--3--3--3--3--3-3-3-3-|

--------------------------|----------------------------|

--------------------------|--1--1--1--1--1--1--1-1-1-1-|

--------------------------|----------------------------|

--4--4--4--4--3--3--3--3--|----------------------------|

-------------------------|----------------------------|

--------------3---3---3--|----------------------------|

--1--1--1--1-------------|----------------------------|

-------------------------|--3--3--3--3--3--3--3-3-3-3-|

--------------------------|--------------------------------|

--------------------------|--1--1--1-1-1-1-----------------|

--------------------------|--------------------------------|

--4--4--4--4--3--3--3--3--|----------------1-1-1-1-1-1-1-1-|

----------------------------------|----------------------------------|

----------------------------------|----------------------------------|

----------------------------------|--3-3-3-3-3-3-3-3-3-3-3-3-3-3-3-3-|

--3-3-3-3-3-3-3-3-3-3-3-3-3-3-3-3-|----------------------------------|

----------------------------------|----------------------------------|

----------------------------------|--1-1-1-1-1-1-1-1-----------------|

--1-1-1-1-1-1-1-1-1-1-1-1-1-1-1-1-|------------------1-1-1-1-1-1-1-1-|

----------------------------------|----------------------------------|

----------------------------------|----------------------------------|

----------------------------------|----------------------------------|

--3-3-3-3-3-3-3-3-3-3-3-3-3-3-3-3-|--3-3-3-3-3-3-3-3-3-3-3-3-3-3-3-3-|

----------------------------------|----------------------------------|

----------------------------------|----------------------------------|

----------------------------------|--1-1-1-1-1-1-1-1-----------------|

--1-1-1-1-1-1-1-1-1-1-1-1-1-1-1-1-|----------------------------------|

----------------------------------|------------------3-3-3-3-3-3-3-3-|

----------------------------------|----------------------------------|

----------------------------------|----------------------------------|

--3-3-3-3-3-3-3-3-3-3-3-3-3-3-3-3-|----------------------------------|

----------------------------------|--3-3-3-3-3-3-3-3-3-3-3-3-3-3-3-3-|

----------------------------------|----------------------------------|

----------------------------------|----------------------------------|

----------------------------------|--1-1-1-1-1-1-1-1-----------------|

--1-1-1-1-1-1-1-1-1-1-1-1-1-1-1-1-|------------------1-1-1-1-1-1-1-1-|

----------------------------------|----------------------------------|

----------------------------------|----------------------------------|

----------------------------------|----------------------------------|

--3-3-3-3-3-3-3-3-3-3-3-3-3-3-3-3-|--3-3-3-3-3-3-3-3-3-3-3-3-3-3-3-3-|

----------------------------------|----------------------------------|

----------------------------------|------------------0-0-0-0-0-0-0-0-|

----------------------------------|--1-1-1-1-1-1-1-1-----------------|

--1-1-1-1-1-1-1-1-1-1-1-1-1-1-1-1-|----------------------------------|

-------------------|--------------------|-------------------|

-------------------|--------------------|-------------------|

-------------------|---------------4----|-------------------|

--3----------------|--3-----------------|--3----------------|

--------------------|------------------------------|

---------------2----|------------------------------|

--------------------|------------------------------|

--3-----------------|--3--3-3-3--3-3-3--3-3-3--3-3-|

-----------------------------|-------------------|------------------|

-----------------------------|-------------------|------------------|

-----------------------------|-------------------|------------------|

--3--3-3-3--3-3-3--3-3-3--1--|--3----------------|------------------|

------------------------------|------------------------------|

------------------------------|------------------------------|

------------------------------|------------------------------|

--0-0-0--0--0-0-0--0-0-0-0-0--|--0-0-0--0--0-0-0--0-0-0-0-0--|

------------------------------|-------------------------|

------------------------------|-------------------------|

------------------------------|-------------------------|

--0-0-0--0--0-0-0--0-0-0-0-0--|--0-0-0--0--0-0-0--------|

--------------------------|--------------------------|

--------------------------|--------------------------|

--0--0--0--0--0--0--0--0--|--------------------------|

--------------------------|--1--1--1--1--1--1--1--1--|

--------------------------|--------------------------|

--------------------------|--------------------------|

--0--0--0--0--0--0--0--0--|--------------------------|

--------------------------|--1--1--1--1--1--1--1--1--|

------------------------------|-----------------------------|

------------------------------|-----------------------------|

------------------------------|-----------------------------|

--3--3-3-3--3-3-3--3-3-3--3-3-|--3--3-3-3--3-3-3--3-3-3--1--|

------------------------------|--------------------------|

------------------------------|--------------------------|

------------------------------|----------------1----3----|

--3--3-3-3--3-3-3--3-3-3--3-3-|--3--3-3-3--3-3-----------|

------------------------------|-----------------------------|

------------------------------|-----------------------------|

------------------------------|-----------------------------|

--3--3-3-3--3-3-3--3-3-3--3-3-|--3--3-3-3--3-3-3--3-3-3--1--|

-------------------|------------------|------------------------------|

-------------------|------------------|------------------------------|

-------------------|------------------|------------------------------|

--3----------------|------------------|--0-0-0--0--0-0-0--0-0-0-0-0--|

------------------------------|------------------------------|

------------------------------|------------------------------|

------------------------------|------------------------------|

--0-0-0--0--0-0-0--0-0-0-0-0--|--0-0-0--0--0-0-0--0-0-0-0-0--|

-------------------------|--------------------------|--------------------------|

-------------------------|--------------------------|--------------------------|

-------------------------|--0--0--0--0--0--0--0--0--|--------------------------|

--0-0-0--0--0-0-0--------|--------------------------|--1--1--1--1--1--1--1--1--|

--------------------------|--------------------------|----------------------|

--------------------------|--------------------------|----------------------|

--0--0--0--0--0--0--0--0--|--------------------------|------------1------1--|

--------------------------|--1--1--1--1--1--1--1--1--|--3------3------------|

----------------------|----------------------|---------------------|

----------------------|----------------------|--1------------------|

------------3------3--|------------1------1--|---------------------|

--1------1------------|--3------3------------|-------1----3--------|

----------------------------|----------------------------|

----------------------------|----------------------------|

---------------1--1-1-1--1--|---------------3--3-3-3--3--|

--3--3-3-3--3---------------|--1--1-1-1--1---------------|

----------------------------|-----------------------|------------------|

----------------------------|--1--1-----------------|------------------|

---------------1--1-1-1--1--|-----------------------|------------------|

--3--3-3-3--3---------------|--------1--1--3--------|------------------|

------------------|------------------|------------------|----------|

------------------|------------------|------------------|----------|

------------------|------------------|------------------|----------|

------------------|------------------|------------------|----------|

------------------|------------------|------------------|------------------|

------------------|------------------|------------------|------------------|

------------------|------------------|------------------|------------------|

------------------|------------------|------------------|------------------|

------------------|------------------|--------------------|-------------------|

------------------|------------------|--1-----------------|-------------------|

------------------|------------------|--------------------|--3----------------|

------------------|------------------|-----------3--------|-------------------|

----------------------------------|----------------------------------|

----------------------------------|----------------------------------|

----------------------------------|----------------------------------|

--3-3-3-3-3-3-3-3-3-3-3-3-3-3-3-3-|--1-1-1-1-1-1-1-1-1-1-1-1-1-1-1-1-|

----------------------------------|----------------------------------|

----------------------------------|----------------------------------|

--1-1-1-1-1-1-1-1-----------------|----------------------------------|

------------------1-1-1-1-1-1-1-1-|--3-3-3-3-3-3-3-3-3-3-3-3-3-3-3-3-|

----------------------------------|----------------------------------|

----------------------------------|----------------------------------|

----------------------------------|----------------------------------|

--3-3-3-3-3-3-3-3-3-3-3-3-3-3-3-3-|--1-1-1-1-1-1-1-1-1-1-1-1-1-1-1-1-|

----------------------------------|--------------------------|

------------------0-0-0-0-0-0-0-0-|--------------------------|

--1-1-1-1-1-1-1-1-----------------|--------------------------|

----------------------------------|--3--3--3--3--3--3--3--3--|

----------------------------------|----------------------------------|

----------------------------------|--0-0-0-0-0-0-0-0-----------------|

----------------------------------|----------------------------------|

--3-3-3-3-3-3-3-3-4-4-4-4-4-4-4-4-|------------------3-3-3-3-3-3-3-3-|

----------------------------------|------------------|------------------||

--1-1-1-1-1-1-1-1-----------------|------------------|------------------||

------------------3-3-3-3-3-3-3-3-|------------------|------------------||

----------------------------------|------------------|------------------||

Taken from The BassMasta -- http://www.tabs-database.com

Get this song at:  amazon.com sheetmusicplus.com

Share your thoughts

0 Comments found