Nightwish

Nightwish - Sleepwalker guitar tab

e:---------------|

B:---------------|

G:---------------|

D:---------4-----|

A:-5-4-2/4-4-----|

E:---------2-----|

e:------------------------------|

B:------------------------------|

G:-----4--6--7---2--------------|

D:-4-4-4--6--7---2---2---4------|

A:-4-4-2--4--5---0---2---4------|

E:-2-2---------------0---2------|

e:--------------|

B:-------3~-----|

G:----2~--------|

D:-0~-----------|

A:--------------|

E:--------------|

e:--------------------------------------------------------------------------|

B:--------------------------------------------------------------------------|

G:------------------------2--4--------4--6--7---2---------------------------|

D:-------7---6---4-----4--2--4----4-4-4--6--7---2---2-----------------------|

A:-4-4-4---4---4---4-5-4--0--2----4-4-2--4--5---0---2-----------------------|

E:---------------------2----------2-2---------------0-----------------------|

Guitar solo

e:--------------------------------------------------------------------------|

B:--------------------------------------------------------------------------|

G:------------------------------------------------2-----4--6----------------|

D:-------7---6---4-----4---------7---6---4-----4--2--2--4--6----------------|

A:-4-4-4---4---4---4-5-4---4-4-4---4---4---4-5-4--0--2--2--4----------------|

E:--------------------2-----------------------2-----0-----------------------|

e:--------------------------------------------------------------------------|

B:--------------------------------------------------------------------------|

G:-2----2-------------------7--2--------------------------------------------|

D:-2----2----3----3----2-2--7--2--------------------------------------------|

A:-0----0----3----3----2-2--5--0--------------------------------------------|

E:-----------1----1----0-0--------------------------------------------------|

e:--------------------------------------------------------------------------|

B:--------------------------------------------------------------------------|

G:----7--2----2-------------------7--2--------------------------------------|

D:-2--7--2----2----3----3----2-2--7--2--------------------------------------|

A:-2--5--0----0----3----3----2-2--5--0--------------------------------------|

E:-0---------------1----1----0-0--------------------------------------------|

Get this song at:  amazon.com sheetmusicplus.com

Share your thoughts

0 Comments found