Nightwish

Nightwish - Sleeping Sun Solo guitar tab

Nightwish

Sleeping Sun (solo)

Transcribed by Nedi Lesev (vaquero@abv.bg)

Standart tuning

E|---1712-127-----------------------------------------------------------|

B|----------------9~-----7--9-9--10-12/15-15-1310~-----10-9-7--12-10-9--|

G|--------------------9---------------------------------------------------|

D|------------------------------------------------------------------------|

A|------------------------------------------------------------------------|

E|------------------------------------------------------------------------|

E|---13-12-10----10-12----------------------------------|

B|------------13-------13/15~~--------------------------|

G|-------------------------------10~--12~--14~----------|

D|------------------------------------------------------|

A|------------------------------------------------------|

E|------------------------------------------------------|

Have fun :)

Get this song at:  amazon.com sheetmusicplus.com

Share your thoughts

0 Comments found