Nightwish

Nightwish - Sleeping Sun bass tab

G||------|------|-------------------|-------------------|-------------------|

D||------|------|--3----------------|-------------------|-------------------|

A||------|------|-------------------|--3----------------|--1----------------|

E||------|------|-------------------|-------------------|-------------------|

-------------------|-------------------|------------------|------------------|

-------------------|-------------------|------------------|------------------|

-------------------|-------------------|------------------|------------------|

--3----------------|--1----------------|------------------|------------------|

------------------|------------------|-------------------|-------------------|

------------------|------------------|-------------------|-------------------|

------------------|------------------|--3----------------|----------3--------|

------------------|------------------|-------------------|-------------------|

-------------------|--------------------|-------------------|

-------------------|--------------------|-------------------|

--3----------------|----------3------3--|-------------------|

-------------------|--------------------|--1----------------|

-------------------|-------------------|-------------------|-------------------|

-------------------|-------------------|-------------------|-------------------|

----------------3--|-------------------|-------------------|--3----------------|

-------------------|--1----------------|----------------3--|-------------------|

-------------------|-------------------|-------------------|-------------------|

-------------------|-------------------|-------------------|-------------------|

----------------3--|--3----------------|-------------------|--1----------------|

-------------------|-------------------|----------------3--|-------------------|

-------------------|-------------------|-------------------|-------------------|

-------------------|-------------------|-------------------|-------------------|

-------------------|-------------------|-------------------|-------------------|

----------------1--|--1----------------|----------------1--|--3----------------|

-------------------|-------------------|--------------------|

-------------------|-------------------|--------------------|

--------------3----|-------------------|--------------------|

-------------------|--1----------------|--1--1--------------|

-------------------|--------------------|-------------------|

-------------------|--------------------|-------------------|

--1----------------|--------------------|--3----------------|

-------------------|--1--1--------------|-------------------|

--------------------|-------------------|---------------------|

--------------------|-------------------|---------------------|

--------------------|--1----------------|---------------------|

--3--3--------------|-------------------|--1--1----------0----|

-------------------|--------------------|-------------------|

-------------------|--------------------|-------------------|

--3----------------|--3--3--------------|-------------------|

-------------------|--------------------|--1----------------|

--------------------|-------------------|-------------------|

--------------------|-------------------|-------------------|

--------------------|-------------------|-------------------|

--3--3--------------|--1----------------|--3----------------|

-------------------|------------------------------|----------------------|

-------------------|------------------------------|----------------------|

-------------------|--1-1-1--1-1-1--1-1-1--1-1-1--|------1--1------------|

--0----------------|------------------------------|------------3--3------|

------------------------------|----------------------|

------------------------------|----------------------|

--1-1-1--1-1-1--1-1-1--1-1-1--|------1--1------------|

------------------------------|------------3--3------|

------------------------------|----------------------|

------------------------------|----------------------|

------------------------------|------1--1------------|

--1-1-1--1-1-1--1-1-1--1-1-1--|------------3--3------|

------------------------------|----------------------|

------------------------------|----------------------|

------------------------------|------1--1------------|

--1-1-1--1-1-1--1-1-1--1-1-1--|------------3--3------|

------------------------------|----------------------|

------------------------------|----------------------|

--1-1-1--1-1-1--1-1-1--1-1-1--|------1--1------------|

------------------------------|------------3--3------|

------------------------------|----------------------|

------------------------------|----------------------|

--1-1-1--1-1-1--1-1-1--1-1-1--|------1--1------------|

------------------------------|------------3--3------|

------------------------------|----------------------|

------------------------------|----------------------|

--1-1-1--1-1-1--1-1-1--1-1-1--|------1--1------------|

------------------------------|------------3--3------|

------------------------------|----------------------|-------------------|

------------------------------|----------------------|-------------------|

------------------------------|------1--1------------|-------------------|

--3-3-3--3-3-3--3-3-3--3-3-3--|------------3--3------|--0----------------|

-------------------|----------------------|---------------------|

-------------------|----------------------|---------------------|

--------------3----|----------------------|---------------------|

-------------------|--1----1----0----0----|--1----0----1--------|

---------------------|---------------------|---------------------|

---------------------|---------------------|---------------------|

---------------------|---------------------|---------------------|

--1------1--0--------|--1------1--1--------|--3------3--3--------|

---------------------|---------------------|----------------------|

---------------------|---------------------|----------------------|

--3------3--3--------|--1------1--1--------|----------------------|

---------------------|---------------------|--1------1--1----0----|

---------------------|---------------------|---------------------|

---------------------|---------------------|---------------------|

--1------1--1--------|--0------0--0--------|--1------1--1--------|

---------------------|---------------------|---------------------|

---------------------|---------------------|---------------------|

---------------------|---------------------|---------------------|

--3------3--3--------|---------------------|--3------3--3--------|

---------------------|--1------1--1--------|---------------------|

-------------------|-------------------|--------------------|

-------------------|-------------------|----------0----0----|

-------------------|-------------------|--------------------|

--1----------------|--1----------------|--------------------|

--------------------|----------------------|--------------------|

--------------------|----------------------|--------------------|

--3--------3--------|--1--------1--1--1----|--3--------3--------|

--------------------|----------------------|--------------------|

--------------------|--------------------|----------------------|

--0--------0--------|--------------------|----------------------|

--------------------|--1--------1--------|------------3--3------|

--------------------|--------------------|------1--1------------|

-------------------|-------------------|-------------------|-------------------|

-------------------|--3----------------|--0----------------|-------------------|

--3----------------|-------------------|-------------------|--1----------------|

-------------------|-------------------|-------------------|-------------------|

------------------------|---------------------|---------------------|

------------------------|---------0--0--------|---------0--0--------|

------------------------|---------------------|---------------------|

--1-----1--1--1--1------|--3------------------|--3------------------|

-------------------|--------------------|--------------------|

-------------------|--------------------|--------------------|

--1----------------|--------------------|--------------------|

-------------------|--1--------1--------|--1--------1--------|

--------------------|--------------------|--------------------|

--------------------|--------------------|--------------------|

--4--------4--------|--------------------|--1--------1--------|

--------------------|--4--------4--------|--------------------|

--------------------|--------------------|--------------------|

--------------------|--------------------|--------------------|

--------------------|--4--------4--------|--------------------|

--1--------1--------|--------------------|--1--------1--------|

--------------------|--------------------|--------------------|

--------------------|--------------------|--------------------|

--------------------|--------------------|--4--------4--------|

--1--------1--------|--1--------1--------|--------------------|

--------------------|--------------------|--------------------|

--1--------1--------|--------------------|--1--------1--------|

--------------------|--------------------|--------------------|

--------------------|--4--------4--------|--------------------|

-------------------|------------------||

-------------------|------------------||

-------------------|------------------||

--1----------------|------------------||

hope you enjoy it as musc as i do its one of there best.

Get this song at:  amazon.com sheetmusicplus.com

Share your thoughts

0 Comments found