Nightwish

Nightwish - Slaying The Dreamer bass tab

Band: Nightwish

Album: Century Child

Song: Slaying The Dreamer

Tuning 5-string: B E A D G

Intro I

G ----------|

D ----------|

A ----------|

E -70777/0--|

B ----------|

II 2x only 2end time

G --------------------------------|----------|

D --------------------------------|----------|

A --------------------------------|----------|

E -00000000000000000000-11-33-11--|-55-5555--|

B --------------------------------|----------|

verse

G ---------------------------------|

D ---------------------------------|

A ---------------------------------|

E -5(32x)-----------------1-----3--| 2x

B --------333333333333333----------|

Chorus

G ---------------------------------|

D ---------------------------------|

A -----35------------------5-3-2-0-|

E -535----000000000086-535---------| 2x

B ---------------------------------|

Intro II 2x

Verse 1x

Chorus 1x

Guitar solo

G -------------------------|

D -------------------------|

A -------------------------|

E -5(32x)--------11-33-44--|

B --------3(26x)-----------|

Pre-chorus

G -------------------------------|

D -------------------------------|

A -------------------------------|

E -5(32x)-11-33-11--------11-33--|

B -----------------3(16x)--------|

Chorus II

G --------------------------------|

D --------------------------------|

A -----13-----53-----13-----53-0--|

E -535----535----535----535-------|

B --------------------------------|

Bridge I (whole bridge listen for perfect timing and rhythem.)

G -----------------------------------------------------------------|

D -----------------------------------------------------------------|

A -----------------------------------------------------------------|

E -33-11-------------5-------------5-------------5------5----6--7--| 2x

B -------3--3--3-333---3--3--333333---3--3--3-333---3333--333--3---|

Part II

G ---------------------------------------------------|

D ---------------------------------------------------|

A ---------------------------------------------------|

E -0--0--0000-5-0-0-0-0000-1-0-0-0-0000-7-00-000530--|

B ---------------------------------------------------|

Part I 1x

Part III

G -----------------------------------------|

D -----------------------------------------|

A -----------------------------------------|

E -5(32x)-6(32x)-7(32x)-8(24x)-9-10-11-12--|

B -----------------------------------------|

Part I 2x (dont play the first 4 notes --> 33 11)

Part III 1x

End (again listen for perfect timing and rhythem)

G -----------------------------------------------------------------|

D -----------------------------------------------------------------|

A -----------------------------------------------------------------|

E --------------3--------------3--------------3------5------6---7--| 2x

B -333-3-3333-33--333-3-3333-33--333-3-3333-33--333-3--333-3--33---|

G -----|

D -----|

A -8~--|

E -----|

B -----|

G ----------------------------------|

D ----------------------------------|

A ----------------------------------|

E ----------------------------------|

B -333-333-3-3-333-3-3-333-333-333--|

Thats it,HAVE FUN

Get this song at:  amazon.com sheetmusicplus.com

Share your thoughts

0 Comments found