Nightwish

Nightwish - She Is My Sin guitar tab

Standard Tunning ( EADGBE )

(/Distortion...)

Enjoy!!!!!!!!

Intro:

e:-------------------------------------------------

B:-------------------------------------------------

G:---------------------3-5------------3------------

D:-5-5-5---3-3-5-5-5---1-3-5-5-5----5-1-3------3---

A:-3-3-3---1-1-3-3-3-------3-3-3--3-3---1-5-6--1---

E:--------------------------------1-------3-4------

Riff:

E------------------------------------------------------------------------------------

B------------------------------------------------------------------------------------

G:----------------------------------------------------------------------------3------

D:-5-----5-6-----6-5-----5-3---3----5-----5-6-----6-5-----5-5---6p5p3--5----5-1-3----

A:---3-3-----3-6-----3-6-----1---1----3-3-----3-6-----3-6-----3--------3--3-3---1-5--

E:------------------------------------------------------------------------1-------3--

E------------------------------------------------------------------------------------

B------------------------------------------------------------------------------------

G:----------------------------------------------------------------------------3------

D:-5-----5-6-----6-5-----5-3---3----5-----5-6-----6-5-----5-5---6p5p3--5----5-1-3----

A:---3-3-----3-6-----3-6-----1---1----3-3-----3-6-----3-6-----3--------3--3-3---1-5--

E:------------------------------------------------------------------------1-------3--

E------------

B------------

G------------

D------------

A---------6--

E---------4--

Verse:

E:----------------------------------------------------------------------

B:----------------------------------------------------------------------

G:------listen when guitar enters..-------------------------------------

D:-7--------------------------------------------------------------------

A:-7----------------------------------7-----7-8-5---8-7-----7-5---5-----

E:-5------------------------------------5-5-------5-----5-8-----3---3~--

e:------------

B:------------

G:------------

D:--3---3/5-5-

A:-3---3/5-5-

E:-1---1/3-3-

e------------------------------------------------------------------------------------

B------------------------------------------------------------------------------------

G------------------------------------------------------------------------------------

D:-------------------------------------------------------5---------------------------

A:-7-----7-7-7-----7-7-7-----7-7-7-----7-7-7--7-7-7--2---3--5--7-----7-8-----8-7-----

E:-5--5--5-5-5--5--5-5-5--5--5-5-5--5--5-5-5--5-5-5--0------3----5-5-----5-8-----5-8-

e:----------------------------------------------------------------------------

B:----------------------------------------------------------------------------

G:----------------------------------------------------------------------------

D:---------------------------------------------------7-------------7---5------

A:-7-----7-7-7-----7-7-7-----7-7-7-----7-7-7--7-7-7--5---7--5--7---5-7-3-5-2--

E:-5--5--5-5-5--5--5-5-5--5--5-5-5--5--5-5-5--5-5-5------5--3--5-----5---3-0--

e:----------------------------------

B:----------------------------------

G:-7--------------------------------

D:-7----7----3----------------------

A:-5----7----3----2-2--2-2-2--2-2---

E:------5----1----0-0--0-0-0--0-0---

Chorus:

A sin for him..

e:---------------------------------------------------

B:---------------------------------------------------

G:-----------------7-------------------------7-------

D:-7---5---3---7---7---5--5--7---5---3---7---7---5---

A:-7---5---3---7---5---5--5--7---5---3---7---5---5---

E:-5---3---1---5-------3--3--5---3---1---5-------3---

Riff:

e------------------------------------------------------------------------------------

B------------------------------------------------------------------------------------

G------------------------------------------------------------------------------------

D:------------------------------------------------------------------------7---5------

A:-7-----7-8-----8-7-----7-5---5----7-----7-8-----8-7-----7-7---8p7p5--7--5-7-3-5-2--

E:---5-5-----5-8-----5-8-----3---3----5-5-----5-8-----5-8-----5--------5----5---3-0--

Verse:

e------------------------------------------------------------------------------------

B------------------------------------------------------------------------------------

G------------------------------------------------------------------------------------

D:-------------------------------------------------------5---------------------------

A:-7-----7-7-7-----7-7-7-----7-7-7-----7-7-7--7-7-7--2---3--5--7-----7-8-----8-7-----

E:-5--5--5-5-5--5--5-5-5--5--5-5-5--5--5-5-5--5-5-5--0------3----5-5-----5-8-----5-8

e:----------------------------------------------------------------------------

B:----------------------------------------------------------------------------

G:----------------------------------------------------------------------------

D:---------------------------------------------------7-------------7---5------

A:-7-----7-7-7-----7-7-7-----7-7-7-----7-7-7--7-7-7--5---7--5--7---5-7-3-5-2--

E:-5--5--5-5-5--5--5-5-5--5--5-5-5--5--5-5-5--5-5-5------5--3--5-----5---3-0--

e:----------------------------------

B:----------------------------------

G:-7--------------------------------

D:-7----7----3----------------------

A:-5----7----3----2-2--2-2-2--2-2---

E:------5----1----0-0--0-0-0--0-0---

Chorus:

e:---------------------------------------------------

B:---------------------------------------------------

G:-----------------7-------------------------7-------

D:-7---5---3---7---7---5--5--7---5---3---7---7---5---

A:-7---5---3---7---5---5--5--7---5---3---7---5---5---

E:-5---3---1---5-------3--3--5---3---1---5-------3---

Solo riff:

e:-------------------------------------------8---7~---------------------

B:------------------------------10--------------------------------------

G:----------------------------9----7-9-10-9----9----9~--95-5/7-74-4h5-

D:------------------5-7-6-/10-------------------------------------------

A:----------------7-----------------------------------------------------

E:-5-5-5--5~--5-5-------------------------------------------------------

guit 1:

e:-----------------------------------------------------------------------------------

B:-----------------------------------------------------------------------------------

G:---------4~-----4-5-4-----7-5-4---9-7-5---10-9-7----12---12--10-9-7--5-4--/12~-9---

D:-7~--5-7------7-------7-5-------5-------5--------5---------------------------------

A:-----------------------------------------------------------------------------------

E:-----------------------------------------------------------------------------------

e:------------------------------------------------------------------------------

B:------------------------------------------------------------------------------

G:-------------------------3-------5-4-----7---------9---9--7-5-4------/9~-9----

D:-3~--2-3-5~--3-5-7-5-3-----7-5-------7-----10-9-----------------7-5-----------

A:-----------------------7-------7-------7--------7-----------------------------

E:------------------------------------------------------------------------------

e:-------------------------------------------

B:-------------------------------------------

G:-------------------------------------------

D:-2----2-3----3-5----5-2---2-----7---5------ x2

A:----5------5------5-----5---7-5-5-7-3-5-2--

E:----------------------------5-3---5---3-0--

e:----------------------------------------------------------

B:--------------------------------------------8--6----------

G:----------------------------5-------7-------------8-7-----

D:-5----5-6----6-8----8-5---5---6-5-6---6-5-6---------------

A:----8------8------8-----8---------------------------------

E:----------------------------------------------------------

e:-------------------------------------------------------------

B:-------------------------------------------------------------

G:----------------------------5-------7-------5-------4--------

D:-5----5-6----6-8----8-5---5---6-5-6---6-5-6---6-5-6---6-5-3--

A:----8------8------8-----8------------------------------------

E:-------------------------------------------------------------

e:--------------------------------------------------------

B:--------------------------------------------------------

G:--------------------------------------------------------

D:-2----2-3----3-5----5-2---2-----7---5----------- x2-----

A:----5------5------5-----5---7-5-5-7-3----5-2------------

E:----------------------------5-3---5-----------3-0-------

e:----------------------------

B:----------------------------

G:----------------------------

D:----------------------------

A:-3-3-3--3--3--5--5-5-5-7----

E:-1-1-1--1--1--3--3-3-3-5----

e:----------------------------------------------------------------------

B:----------------------------------------------------------------------

G:-*--------------------------------------------------------------------

D:-*-5-------5-------5-------5-------5-------5-------5-------5--3-------

A:---3--3-3--3--3-3--3--3-3--3--3-3--3--3-3--3--3-3--3--3-3--3--1---6---

E:------------------------------------------------------------------4---

e:-----------------------------------------------------------------------------------

B:-----------------------------------------------------------------------------------

G:------------------------------------------------------------5------*---------------

D:-5-------5-------5-------5-------5-------5-------5-------5--3---3--*---------------

A:-3--3-3--3--3-3--3--3-3--3--3-3--3--3-3--3--3-3--3--3-3--3------1------------------

E:-----------------------------------------------------------------------------------

e:-----------------------------------------------------------------------------------

B:-----------------------------------------------------------------------------------

G:-----------------------------------------------3-----------------------------------

D:-5-----5-6-----6-5-----5-6-----6-5-----5-6---5-1-3---5-5--------------------------

A:---3-3-----3-6-----3-3-----3-6-----3-3-----3-3---1-5-3-3--------------------------

E:-------------------------------------------1-------3-------------------------------

Hope You Like It enjoy !! E-mail me for any kind of suggestion or just rate me thxs !

Stigmate70@hotmail.com

FreakMen

Get this song at:  amazon.com sheetmusicplus.com

Share your thoughts

0 Comments found