Nightwish

Nightwish - She Is My Sin bass tab

G||---------------------|--------------------|---------------------|

D||---------------------|--------------------|---------------------|

A||--3--3--3------------|------------1----1--|--3--3--3------------|

E||---------------------|--------------------|---------------------|

--------------------|----------------------|----------------------|

------------1----3--|----------------------|-------1--------------|

--------------------|--3--3--3-------------|--3---------1---------|

--------------------|-----------------1----|-----------------3----|

--------------------------|--------------------------|----------------------|

--------------------------|--------------------------|----------------------|

--------------------------|--1--1--1--1--1--1--1--1--|--3----3----3----3----|

--4--4--4--4--4--4--4--4--|--------------------------|----------------------|

----------------------|----------------------|----------------------|

----------------------|----------------------|----------------------|

--3----3----3----3----|--3----3----3----3----|--3----3----3----3----|

----------------------|----------------------|----------------------|

----------------------|----------------------|--------------------------|

----------------------|-------1--------------|--------------------------|

--3----3----3---------|--3---------1---------|--------------------------|

-----------------1----|-----------------3----|--4--4--4--4--4--4--4--4--|

--------------------------|--------------------------|

--------------------------|--5--------5--6--------6--|

--1--1--1--1--1--1--1--1--|-----3--3--------3--6-----|

--------------------------|--------------------------|

--------------------------|--------------------------|

--5--------5--3-----3-----|--5--------5--6--------6--|

-----3--6--------1-----1--|-----3--3--------3--6-----|

--------------------------|--------------------------|

---------------------------|--------------------|----------------------|

--5--------5--5-----6-5-3--|--------------------|-------1--------------|

-----3--6--------3---------|--3-----------------|--3---------1---------|

---------------------------|---------------1----|-----------------3----|

--------------------------|-------------------|-------------------|

--------------------------|-------------------|-------------------|

--------------------------|-------------------|-------------------|

--4--4--4--4--4--4--4--4--|--6----------------|--5----------------|

------------------|-------------------|--------------------|

------------------|-------------------|--------------------|

------------------|-------------------|--3-----------------|

------------------|--0----------------|-----------3--------|

--------------------------|--------------------------|-------------------|

--------------------------|--------------------------|-------------------|

--7--------7--8--------8--|--7--------7--5-----5-----|--0----------------|

-----5--5--------5--8-----|-----5--8--------3-----3--|-------------------|

------------------|-------------------|--------------------|-------------------|

------------------|--0----------------|--------------------|-------------------|

------------------|-------------------|--0-----------------|-------------------|

------------------|-------------------|-----------3--------|--1----------------|

---------------------|-----------------------------|

---------------------|-----------------------------|

---------------------|-----------------------------|

------------1--3--3--|--5--5--5-5-5--5--5-5-5--5-5-|

-----------------------------|-------------------|--------------------|

-----------------------------|-------------------|--------------------|

-----------------------------|-------------------|--3-----------------|

--5--5-5-5--5--5-5-5--5-5-5--|--0----------------|-----------3--------|

--------------------------|--------------------------|

--------------------------|--------------------------|

--7--------7--8--------8--|--7--------7--5-----5-----|

-----5--5--------5--8-----|-----5--8--------3-----3--|

-----------------------------|-----------------------------|-------------------|

-----------------------------|-----------------------------|-------------------|

-----------------------------|-----------------------------|--5----------------|

--5--5--5-5-5--5--5-5-5--5-5-|--5--5-5-5--5--5-5-5--5-5-5--|-------------------|

--------------------|--------------------|----------------------|

--------------------|--------------------|----------------------|

--------------------|---------------5----|-------3--------------|

--5--------3--------|--5-----------------|--5---------3----0----|

--------------------|--------------------|--------------------|

--------------------|--------------------|--------------------|

--5--5--------------|--5--5--------------|--------------------|

--------------------|--------------------|--5--5--------------|

--------------------|--------------------|--------------------|

--------------------|--------------------|--------------------|

--------------------|--------------------|--------------------|

--5--5--------------|--1--1--------------|--1--1--------------|

------------------------|-------------------||-------------------------|

------------------------|-------------------||*------------------------|

------------------------|-------------------||*------------------------|

--0--0----0--0--0----0--|--0----------------||---5--5--5--5----5--5----|

------------------------|------------------------|----------------------------|

------------------------|------------------------|----------------------------|

------------------------|------------------------|----------------------------|

--5--5--5--5----5--5----|--3--3--3--3----3--3----|--1--1-1-1--1-1-1--1-1-1----|

------------------------|------------------------|------------------------|

------------------------|------------------------|------------------------|

------------------------|------------------------|--5--5--5--5----5--5----|

--5--5--5--5----5--5----|--5--5--5--5----5--5----|------------------------|

---------------------||--------------------------|--------------------------|

--------------------*||--------------------------|--------------------------|

--3-----------------*||--7--------7--8--------8--|--7--------7--5-----5-----|

-----------3---------||-----5--5--------5--8-----|-----5--8--------3-----3--|

--------------------------|---------------------------|--------------------|

--------------------------|---------------------------|--------------------|

--7--------7--8--------8--|--7--------7--7-----8-7-5--|---------------5----|

-----5--5--------5--8-----|-----5--8--------5---------|--5-----------------|

----------------------|--------------------------|-------------------|

----------------------|--------------------------|-------------------|

-------3--------------|--------------------------|-------------------|

--5---------3----0----|--1--1--1--1--1--1--1--1--|--3----------------|

-----------------------------|-----------------------------|-------------------|

-----------------------------|-----------------------------|-------------------|

-----------------------------|-----------------------------|-------------------|

--5--5--5-5-5--5--5-5-5--5-5-|--5--5-5-5--5--5-5-5--5-5-5--|--0----------------|

--------------------|--------------------------|--------------------------|

--------------------|--------------------------|--------------------------|

--3-----------------|--7--------7--8--------8--|--7--------7--5-----5-----|

-----------3--------|-----5--5--------5--8-----|-----5--8--------3-----3--|

-----------------------------|-----------------------------|-------------------|

-----------------------------|-----------------------------|-------------------|

-----------------------------|-----------------------------|--5----------------|

--5--5--5-5-5--5--5-5-5--5-5-|--5--5-5-5--5--5-5-5--5-5-5--|-------------------|

--------------------|--------------------|----------------------|

--------------------|--------------------|----------------------|

--------------------|---------------5----|-------3--------------|

--5--------3--------|--5-----------------|--5---------3----0----|

--------------------|--------------------|--------------------|

--------------------|--------------------|--------------------|

--5--5--------------|--5--5--------------|--------------------|

--------------------|--------------------|--5--5--------------|

--------------------|--------------------|--------------------|

--------------------|--------------------|--------------------|

--------------------|--------------------|--------------------|

--5--5--------------|--1--1--------------|--1--1--------------|

------------------------|-------------------||-------------------------|

------------------------|-------------------||*------------------------|

------------------------|-------------------||*------------------------|

--0--0----0--0--0----0--|--0----------------||---5--5--5--5----5--5----|

------------------------|------------------------|----------------------------|

------------------------|------------------------|----------------------------|

------------------------|------------------------|----------------------------|

--5--5--5--5----5--5----|--3--3--3--3----3--3----|--1--1-1-1--1-1-1--1-1-1----|

------------------------|------------------------|------------------------|

------------------------|------------------------|------------------------|

------------------------|------------------------|--5--5--5--5----5--5----|

--5--5--5--5----5--5----|--5--5--5--5----5--5----|------------------------|

---------------------||------|------|------|------|------|------|------|------|

--------------------*||------|------|------|------|------|------|------|------|

--3-----------------*||------|------|------|------|------|------|------|------|

-----------3---------||------|------|------|------|------|------|------|------|

------|------|---------------------|----------------------|------|------|

------|------|---------------------|----------------------|------|------|

------|------|----------------5----|-------3--------------|------|------|

------|------|--5------3-----------|--5---------3----0----|------|------|

---------------------|----------------------|------|------|------|------|------|

---------------------|----------------------|------|------|------|------|------|

----------------5----|-------3--------------|------|------|------|------|------|

--5------3-----------|--5---------3----0----|------|------|------|------|------|

------|------|------|------|------|---------------------|----------------------|

------|------|------|------|------|---------------------|----------------------|

------|------|------|------|------|----------------5----|-------3--------------|

------|------|------|------|------|--5------3-----------|--5---------3----0----|

------|------|---------------------|----------------------|

------|------|---------------------|----------------------|

------|------|----------------5----|-------3--------------|

------|------|--5------3-----------|--5---------3----0----|

-----------------------|----------------------|-------------------|

-----------------------|----------------------|-------------------|

-----------------------|----------------------|--0----------------|

--1-1-1------1------1--|------3------3--3--3--|-------------------|

------------------|------|------|------|------|------|------|

------------------|------|------|------|------|------|------|

------------------|------|------|------|------|------|------|

------------------|------|------|------|------|------|------|

------------------------------|------------------------------|

------------------------------|------------------------------|

--3--3-3-3--3-3-3--3-3-3--3-3-|--3--3-3-3--3-3-3--3-3-3--3-3-|

------------------------------|------------------------------|

--------------------|-------------------|------------------------------|

--------------------|-------------------|------------------------------|

--3------------1----|-------------------|--3--3-3-3--3-3-3--3-3-3--3-3-|

--------------------|--4----------------|------------------------------|

------------------------------|-------------------|-------------------|

------------------------------|-------------------|-------------------|

--3--3-3-3--3-3-3--3-3-3--3-3-|--3----------------|--1----------------|

------------------------------|-------------------|-------------------|

------------------------------|------------------------------|

------------------------------|------------------------------|

--3--3-3-3--3-3-3--3-3-3--3-3-|--3--3-3-3--3-3-3--3-3-3--3-3-|

------------------------------|------------------------------|

--------------------|-------------------|------------------------------|

--------------------|-------------------|------------------------------|

--3------------1----|-------------------|--3--3-3-3--3-3-3--3-3-3--3-3-|

--------------------|--4----------------|------------------------------|

------------------------------|-------------------|-------------------|

------------------------------|-------------------|-------------------|

--3--3-3-3--3-3-3--3-3-3--3-3-|--3----------------|--1----------------|

------------------------------|-------------------|-------------------|

--------------------------|--------------------------|----------------------|

--5--------5--6--------6--|--5--------5--6--------6--|----------------------|

-----3--3--------3--6-----|-----3--3--------3--6-----|--3--3--3-------------|

--------------------------|--------------------------|-----------------1----|

----------------------|--------------------|------||

-------1--------------|--------------------|------||

--3---------1---------|--3--3--------------|------||

-----------------3----|--------------------|------||

Taken from The BassMasta -- http://www.tabs-database.com

Get this song at:  amazon.com sheetmusicplus.com

Share your thoughts

0 Comments found