Nightwish

Nightwish - Sacrament Of Wilderness guitar tab

intro

|------------|------|------------|-----------|

|------------|------|------------|-----------|

|------------|--7--|------------|----2---4--|

|-4-4-4-4-4--|--7--|-4-4-4-4-4--|----2---4--|

|-4-4-4-4-4--|--5--|-4-4-4-4-4--|----0---2--|

|-2-2-2-2-2--|------|-2-2-2-2-2--|--0---0----|

Riff 1

|----------------------------|--------------------------------|

|----------------------------|--------------------------------|

|------------------------7---|--------------------------2--4--|

|--4---------------4-----7---|-4---------------4--------2--4--|

|--4---------------4-----5---|-4---------------4--------0--2--|

|--2--2-2-222-2-22-2-2-2-----|-2--2-2-222-2-22-2--2-222-------|

pre-chorus

|------------------------------------------------|

|------------------------------------------------|

|-------------2------------4------------4--------|

|--4----------2------------4------------4--------|

|--4----------0------------2------------2--------|

|--2---------------------------------------------|

riff interlude

|-------------------|------------------|------------------------------------|

|-------------------|------------------|------------------------------------|

|-------------------|------------------|------------------------------------|

|-4-----------------|-4----------------|----4---------------------------2---|

|-4-----------------|-4----------------|----------4---------------------2---|

|-2--2-2--222-2-22--|-2--2-2-222-2-22--|-2----2-2---2-2--2--2-2-2-2-2-2-0---|

* don't mute this F#

verse riff

|------------------|------------------|-------------------|

|------------------|------------------|-------------------|

|------------------|---------------6--|-7-----------------|

|-4----------------|-4-------------6--|-7-----------------|

|-4----------------|-4-------------4--|-5--5-5-555-5-55---|

|-2--2-2-222-2-22--|-2--2-2-222-2-----|-------------------|

|----------------|------------------|-------------------------|

|----------------|------------------|-------------------------|

|-7-----------6--|-4----------------|-4-----------------------|

|-7-----------6--|-4----------------|-4--------------4----2---|

|-5--5-5-5-5--4--|-2--2-2-222-2-22--|-2--2-2-222-22--4----2---|

|----------------|------------------|----------------2----0---|

|---------------------------------------|

|---------------------------------------|

|---------------------------------------|

|---------------------------------------|

|-------------------5------7------------|

|-2-------------------------------------|

riff interlude

|------------------------------------|

|------------------------------------|

|------------------------2--2---4----|

|-4-4-4--4-4-4----4-4-4--2--2---4----|

|-4-4-4--4-4-4----4-4-4--0--0---2----|

|-2-2-2--2-2-2----2-2-2--------------|

ending riff. end the song with an A5

|---------------------------------------|

|---------------------------------------|

|--2------------------------------------|

|--2--------3---------5-----------------|

|--0--------3---------5-----------------|

|-----------1---------3-----------------|

Get this song at:  amazon.com sheetmusicplus.com

Share your thoughts

0 Comments found