Nightwish

Nightwish - Sacrament Of Wilderness bass tab

G||-----------------------|-------------------|-----------------------|

D||-----------------------|----------0--------|-----------------------|

A||-----------------------|-------------------|-----------------------|

E||--2-2-2-2-2------------|-------------------|--2-2-2-2-2------------|

--------------------|-----------------------|-------------------|

--------------------|-----------------------|----------0--------|

------------0----2--|-----------------------|-------------------|

--------------------|--2-2-2-2-2------------|-------------------|

-----------------------|--------------------|---------------------------|

-----------------------|--------------------|---------------------------|

-----------------------|------------0----2--|---------------------------|

--2-2-2-2-2------------|--------------------|--2----2--2--2-2-2-2-2--2--|

-----------------------|---------------------------|------------------------|

-------------0----0----|---------------------------|------------------------|

-----------------------|---------------------------|----------------0----2--|

--2----2--2------------|--2----2--2--2-2-2-2-2--2--|--2----2--2--2----------|

---------------------------|-----------------------|---------------------------|

---------------------------|-------------0----0----|---------------------------|

---------------------------|-----------------------|---------------------------|

--2----2--2--2-2-2-2-2--2--|--2----2--2------------|--2----2--2--2-2-2-2-2--2--|

-------------------|----------------------------------|

-------------------|----------------------------------|

-------------------|----------------------------------|

--2----------------|--2-2-2-2-2-2-2-2-2-2-2-2-2-2-2-2-|

----------------------------------|----------------------------------|

----------------------------------|----------------------------------|

----------------------------------|--0-0-0-0-0-0-0-0-0-0-0-0-0-0-0-0-|

--2-2-2-2-2-2-2-2-2-2-2-2-2-2-2-2-|----------------------------------|

----------------------------------|----------------------------------|

----------------------------------|----------------------------------|

--0-0-0-0-0-0-0-0-0-0-0-0-0-0-0-0-|--2-2-2-2-2-2-2-2-2-2-2-2-2-2-2-2-|

----------------------------------|----------------------------------|

---------------------|---------------------|------------------|

---------------------|---------------------|------------------|

--2--------4---------|---------------------|------------------|

------------------0--|----0----0--2--------|------------------|

------------------|------------------|-------------------|

------------------|------------------|-------------------|

------------------|------------------|-------------------|

------------------|------------------|--------------0----|

---------------------------|---------------------------|

---------------------------|---------------------------|

---------------------------|------------------------4--|

--2----2--2--2-2-2--2--2-2-|--2----2--2-2-2-2-2--2-----|

---------------------------|--------------------------|

--0----0--0--0-0-0--0--0-0-|--0----0--0-0-0--0-0------|

---------------------------|---------------------4----|

---------------------------|--------------------------|

---------------------------|---------------------------|

---------------------------|---------------------------|

--2----2--2--2-2-2--2--2-2-|--2----2--2--2-2-2--2--2-2-|

---------------------------|---------------------------|

--------------------------|--------------------|---------------------------|

--------------------------|--------------------|---------------------------|

--------------------------|--------------------|---------------------------|

--2--2--2--2--2--2--2--2--|--0------------0----|--2----2--2--2-2-2--2--2-2-|

---------------------------|---------------------------|

---------------------------|--0----0--0--0-0-0--0--0-0-|

------------------------4--|---------------------------|

--2----2--2-2-2-2-2--2-----|---------------------------|

--------------------------|---------------------------|

--0----0--0-0-0--0-0------|---------------------------|

---------------------4----|--2----2--2--2-2-2--2--2-2-|

--------------------------|---------------------------|

---------------------------|--------------------------|-------------------|

---------------------------|--------------------------|-------------------|

--2----2--2--2-2-2--2--2-2-|--------------------------|-------------------|

---------------------------|--2--2--2--2--2--2--2--2--|--0----------------|

----------------------------------|----------------------------------|

----------------------------------|----------------------------------|

----------------------------------|----------------------------------|

--2-2-2-2-2-2-2-2-2-2-2-2-2-2-2-2-|--2-2-2-2-2-2-2-2-2-2-2-2-2-2-2-2-|

----------------------------------|----------------------------------|

----------------------------------|----------------------------------|

--0-0-0-0-0-0-0-0-0-0-0-0-0-0-0-0-|--0-0-0-0-0-0-0-0-0-0-0-0-0-0-0-0-|

----------------------------------|----------------------------------|

----------------------------------|---------------------|------------|

----------------------------------|---------------------|------------|

--2-2-2-2-2-2-2-2-2-2-2-2-2-2-2-2-|--2--------4---------|------------|

----------------------------------|------------------0--|----0----0--|

---------------------------|---------------------------|

---------------------------|---------------------------|

---------------------------|------------------------4--|

--2----2--2--2-2-2--2--2-2-|--2----2--2-2-2-2-2--2-----|

---------------------------|--------------------------|

--0----0--0--0-0-0--0--0-0-|--0----0--0-0-0--0-0------|

---------------------------|---------------------4----|

---------------------------|--------------------------|

---------------------------|---------------------------|

---------------------------|---------------------------|

--2----2--2--2-2-2--2--2-2-|--2----2--2--2-2-2--2--2-2-|

---------------------------|---------------------------|

--------------------------|-------------------|---------------------------|

--------------------------|-------------------|---------------------------|

--------------------------|-------------------|---------------------------|

--2--2--2--2--2--2--2--2--|--0----------------|--2----2--2--2-2-2--2--2-2-|

---------------------------|---------------------------|

---------------------------|--0----0--0--0-0-0--0--0-0-|

------------------------4--|---------------------------|

--2----2--2-2-2-2-2--2-----|---------------------------|

--------------------------|---------------------------|

--0----0--0-0-0--0-0------|---------------------------|

---------------------4----|--2----2--2--2-2-2--2--2-2-|

--------------------------|---------------------------|

---------------------------|--------------------------|-------------------|

---------------------------|--------------------------|-------------------|

--2----2--2--2-2-2--2--2-2-|--------------------------|-------------------|

---------------------------|--2--2--2--2--2--2--2--2--|--0----------------|

----------------------------------|----------------------------------|

----------------------------------|----------------------------------|

----------------------------------|----------------------0-2---0-2-4-|

--2-2-2-2-2-2-2-2-2-2-2-2-2-2-2-2-|--2-2-2-2-2-2-2-2-2-4-----4-------|

----------------------------------|----------------------------------|

--0-0-0-0-0-0-0-0-0-0-0-0-0-0-0-0-|--2-2-2-2-2-2-2-2-2-2-2-2-2-2-2-2-|

----------------------------------|----------------------------------|

----------------------------------|----------------------------------|

----------------------------------|----------------------------------|

----------------------------------|----------------------------------|

----------------------------------|----------------------0-2---0-2-4-|

--2-2-2-2-2-2-2-2-2-2-2-2-2-2-2-2-|--2-2-2-2-2-2-2-2-2-4-----4-------|

----------------------------------|----------------------------------|

--0-0-0-0-0-0-0-0-0-0-0-0-0-0-0-0-|--2-0-----0-----------------------|

----------------------------------|------4-2---4-2-0-4-2-0---2-0-----|

----------------------------------|------------------------4-----4-2-|

----------------------------------|----------------------------------|

----------------------------------|----------------------------------|

----------------------------------|----------------------0-2---0-2-4-|

--2-2-2-2-2-2-2-2-2-2-2-2-2-2-2-2-|--2-2-2-2-2-2-2-2-2-4-----4-------|

----------------------------------|----------------------------------|

--0-0-0-0-0-0-0-0-0-0-0-0-0-0-0-0-|--2-2-2-2-2-2-2-2-2-2-2-2-2-2-2-2-|

----------------------------------|----------------------------------|

----------------------------------|----------------------------------|

----------------------------------|----------------------------------|

----------------------------------|----------------------------------|

----------------------------------|----------------------0-2---0-2-4-|

--2-2-2-2-2-2-2-2-2-2-2-2-2-2-2-2-|--2-2-2-2-2-2-2-2-2-4-----4-------|

----------------------------------|----------------------------------|

--0-0-0-0-0-0-0-0-0-0-0-0-0-0-0-0-|--2-0-----0-----------------------|

----------------------------------|------4-2---4-2-0-4-2-0---2-0-----|

----------------------------------|------------------------4-----4-2-|

---------------------------|-----------------------|---------------------------|

---------------------------|-------------0----0----|---------------------------|

---------------------------|-----------------------|---------------------------|

--2----2--2--2-2-2-2-2--2--|--2----2--2------------|--2----2--2--2-2-2-2-2--2--|

------------------------|---------------------------|-----------------------|

------------------------|---------------------------|-------------0----0----|

----------------0----2--|---------------------------|-----------------------|

--2----2--2--2----------|--2----2--2--2-2-2-2-2--2--|--2----2--2------------|

---------------------------|---------------------|--------------------------|

---------------------------|---------------------|--------------------------|

---------------------------|-------------0----2--|--------------------------|

--2----2--2--2-2-2-2-2--2--|--2------------------|--2-2-2----2-2-2----2-2---|

-------------------------|--------------------------|-------------------------|

-------------------------|--------------------------|-------------------------|

-------------0---0---0---|--------------------------|-------------0---0---0---|

--2-2-2---0--------------|--2-2-2----2-2-2----2-2---|--2-2-2---0--------------|

--------------------------|-------------------------|--------------------------|

--------------------------|-------------------------|--------------------------|

--------------------------|-------------0---0---0---|--------------------------|

--2-2-2----2-2-2----2-2---|--2-2-2---0--------------|--2-2-2----2-2-2----2-2---|

-------------------------|----------------------------------|

-------------------------|----------------------------------|

-------------0---0---0---|----------------------------------|

--2-2-2---0--------------|--2-2-2-2-2-2-2-2-2-2-2-2-2-2-2-2-|

----------------------------------|----------------------------------|

----------------------------------|----------------------------------|

----------------------------------|----------------------------------|

--2-2-2-2-2-2-2-2-2-2-2-2-2-2-2-2-|--2-2-2-2-2-2-2-2-2-2-2-2-2-2-2-2-|

----------------------------------|----------------------------------|

----------------------------------|----------------------------------|

----------------------------------|----------------------------------|

--2-2-2-2-2-2-2-2-2-2-2-2-2-2-2-2-|--2-2-2-2-2-2-2-2-2-2-2-2-2-2-2-2-|

----------------------------------|----------------------------------|

----------------------------------|----------------------------------|

----------------------------------|----------------------------------|

--2-2-2-2-2-2-2-2-2-2-2-2-2-2-2-2-|--2-2-2-2-2-2-2-2-2-2-2-2-2-2-2-2-|

----------------------------------|--------------------------|

----------------------------------|--------------------------|

----------------------------------|--------------------------|

--2-2-2-2-2-2-2-2-2-2-2-2-2-2-2-2-|--2--2--2--2--2--2--2--2--|

--------------------------|--------------------------|

--2--2--2--2--0--0--0--0--|--------------------------|

--------------------------|--------------------------|

--------------------------|--2--2--2--2--2--2--2--2--|

--------------------------|--------------------------|

--------------------------|--------------------------|

--0--0--0--0--2--2--2--2--|--------------------------|

--------------------------|--2--2--2--2--2--2--2--2--|

--------------------------|--------------------------|

--2--2--2--2--0--0--0--0--|--------------------------|

--------------------------|--------------------------|

--------------------------|--2--2--2--2--2--2--2--2--|

--------------------------|--------------------------|-------------------------|

--------------------------|--------------------------|-------------------------|

--0--0--0--0--2--2--2--2--|--------------------------|-------------0---0---0---|

--------------------------|--2-2-2----2-2-2----2-2---|--2-2-2---0--------------|

----------------------------------|----------------------------------|

----------------------------------|----------------------------------|

----------------------------------|----------------------------------|

--2-2-2-2-2-2-2-2-2-2-2-2-2-2-2-2-|--2-2-2-2-2-2-2-2-2-2-2-2-2-2-2-2-|

----------------------------------|----------------------------------|

----------------------------------|----------------------------------|

----------------------------------|----------------------------------|

--2-2-2-2-2-2-2-2-2-2-2-2-2-2-2-2-|--2-2-2-2-2-2-2-2-2-2-2-2-2-2-2-2-|

----------------------------------|----------------------------------|

----------------------------------|----------------------------------|

----------------------------------|----------------------------------|

--2-2-2-2-2-2-2-2-2-2-2-2-2-2-2-2-|--2-2-2-2-2-2-2-2-2-2-2-2-2-2-2-2-|

----------------------------------|----------------------------------|

----------------------------------|----------------------------------|

----------------------------------|----------------------------------|

--2-2-2-2-2-2-2-2-2-2-2-2-2-2-2-2-|--2-2-2-2-2-2-2-2-2-2-2-2-2-2-2-2-|

----------------------------------|----------------------------------|

----------------------------------|----------------------------------|

----------------------------------|----------------------0-2---0-2-4-|

--2-2-2-2-2-2-2-2-2-2-2-2-2-2-2-2-|--2-2-2-2-2-2-2-2-2-4-----4-------|

----------------------------------|----------------------------------|

--0-0-0-0-0-0-0-0-0-0-0-0-0-0-0-0-|--2-2-2-2-2-2-2-2-2-2-2-2-2-2-2-2-|

----------------------------------|----------------------------------|

----------------------------------|----------------------------------|

----------------------------------|----------------------------------|

----------------------------------|----------------------------------|

----------------------------------|----------------------0-2---0-2-4-|

--2-2-2-2-2-2-2-2-2-2-2-2-2-2-2-2-|--2-2-2-2-2-2-2-2-2-4-----4-------|

----------------------------------|----------------------------------|

--0-0-0-0-0-0-0-0-0-0-0-0-0-0-0-0-|--2-0-----0-----------------------|

----------------------------------|------4-2---4-2-0-4-2-0---2-0-----|

----------------------------------|------------------------4-----4-2-|

----------------------------------|----------------------------------|

----------------------------------|------------------------0-----0-2-|

--0-0-0-0-0-0-0-0-0-0-0-0-0-0-0-0-|--0-0-0-0-0-0-0-0-0-2-3---2-3-----|

----------------------------------|----------------------------------|

----------------------------------|--0-0-0-0-0-0-0-0-0-0-0-0-0-0-0-0-|

--3-3-3-3-3-3-3-3-3-3-3-3-3-3-3-3-|----------------------------------|

----------------------------------|----------------------------------|

----------------------------------|----------------------------------|

----------------------------------|----------------------------------|

----------------------------------|------------------------0-----0-2-|

--0-0-0-0-0-0-0-0-0-0-0-0-0-0-0-0-|--0-0-0-0-0-0-0-0-0-2-3---2-3-----|

----------------------------------|----------------------------------|

----------------------------------|--0-------------------------------|

--3-3-3-3-3-3-3-3-3-3-3-3-3-3-3-3-|----3-2-0-3-2-0---2-0-----0-------|

----------------------------------|----------------3-----3-2---3-2-0-|

----------------------------------|----------------------------------|

----------------------------------|----------------------------------|

----------------------------------|------------------------0-----0-2-|

--0-0-0-0-0-0-0-0-0-0-0-0-0-0-0-0-|--0-0-0-0-0-0-0-0-0-2-3---2-3-----|

----------------------------------|----------------------------------|

----------------------------------|--0-0-0-0-0-0-0-0-0-0-0-0-0-0-0-0-|

--3-3-3-3-3-3-3-3-3-3-3-3-3-3-3-3-|----------------------------------|

----------------------------------|----------------------------------|

----------------------------------|----------------------------------|

----------------------------------|----------------------------------|

----------------------------------|------------------------0-----0-2-|

--0-0-0-0-0-0-0-0-0-0-0-0-0-0-0-0-|--0-0-0-0-0-0-0-0-0-2-3---2-3-----|

----------------------------------|----------------------------------|

----------------------------------|--0-------------------------------|

--3-3-3-3-3-3-3-3-3-3-3-3-3-3-3-3-|----3-2-0-3-2-0---2-0-----0-------|

----------------------------------|----------------3-----3-2---3-2-0-|

----------------------------------|----------------------------------|

-------------------|-------------------|------------------|------------------||

-------------------|-------------------|------------------|------------------||

--0----------------|--------------0----|------------------|------------------||

-------------------|-------------------|------------------|------------------||

Taken from The BassMasta -- http://www.tabs-database.com

Get this song at:  amazon.com sheetmusicplus.com

Share your thoughts

0 Comments found