Nightwish

Nightwish - Romanticide (intro) guitar tab

Nightwish - Romanticide

Tabbed By: xXxEggyxXx

Email: webmaster at tabs-database.com.com

Tuning: Drop D (D A D G B E)

This is only the intro as you can see.

Intro

2x

E|----------------------------------------------------------------||

B|----------------------------------------------------------------||

G|----------------------------------------------------------------||

D|----------------------------------------------------------------||

A|--0-1-0-3---3/5--0-0-1-0------0-1-0-3---3/5--0-0-0--1-0---------||

D|0---------0------0-0-1-0----0---------0------0-0-0--1-0---------||

E|----------------------------------------------------------------||

B|----------------------------------------------------------------||

G|----------------------------------------------------------------||

D|----------------------------------------------------------------||

A|--0-1-0-3---3/5--00-1-0------0-1-0-3---3/5----------------------||

D|0---------0------00-1-0----0---------0--------------------------||

3x

E|--------------------------------||

B|--------------------------------||

G|--------------------------------||

D|--------------------------------||

A|0-0-0--1-0----0-1-0-3---3/5-----||

D|0-0-0--1-0--0---------0---------||

E|--------------------------------||

B|--------------------------------||

G|--------------------------------||

D|--------------------------------||

A|00-1-0------1-0---0-------------||

D|00-1-0--0-0-----2---1-----------||Added by tabs-database.com and our distinguished partners

Get this song at:  amazon.com sheetmusicplus.com

Share your thoughts

0 Comments found